Oops, an error
Loading. Please wait.

Awaken Tab

version 3
version 3

Whole song

Interactive

7,653 views 1 this week
1 commentread comment
1 2 3 4 5
excellent!
x 5
add to favorites
launch autoscroll
font size
0
reset
how to read this tab
guitar tuner
Tab Pro tools
  • play this tab
  • loop segment
  • change instrument
  • show fretboard
  • metronome
×
Best way to learn
"Awaken"
Autoscroll
slow
fast
+/-
esc
set tempo
stop
Contributor
Song: Awaken
Band: Disturbed
Album: Believe
Tuning: Drop D half-step down (Db Ab Db Gb Bb eb, low to high)
Transcribed and written by: JustinLH4rock

KEY: < > = harmonic
       / = slide up
       \ = slide down

INTRO:
eb|-------------------------------------------------------|
Bb|-------------------------------------------------------|
Gb|-------------------------------------------------------|
Db|---------------------------------------------------<5>-|
Ab|-3\2--2-/14-3-2--3-2--3/5-5--3\2--2-/14-3-2--3-5-5-----|
Db|-3\2--2-/14-3-2--3-2--3/5-5--3\2--2-/14-3-2--3-5-5-----|

|-------------------------------------------------------|
|-------------------------------------------------------|
|-------------------------------------------------------|
|-------------------------------------------------------|
|-3\2--2-/14-3-2--3-2--3/5-5--3\2--2-/14-3-2--3-5-5-5-5-|
|-3\2--2-/14-3-2--3-2--3/5-5--3\2--2-/14-3-2--3-5-5-5-5-|
PM                                                * * *

|-------------------------------------------------------|
|-------------------------------------------------------|
|---------------------------------------------------<5>-|
|-------------------------------------------------------|
|-3\2--2-/14-3-2--3-2--3/5-5--3\2--2-/14-3-2--3-5-5-----|
|-3\2--2-/14-3-2--3-2--3/5-5--3\2--2-/14-3-2--3-5-5-----|

|-------------------------------------------------------|
|-------------------------------------------------------|
|-------------------------------------------------------|
|-------------------------------------------------------|
|-3\2--2-/14-3-2--3-2--3/5-5--3\2--2-/14-3-2--3-5-5-5-5-|
|-3\2--2-/14-3-2--3-2--3/5-5--3\2--2-/14-3-2--3-5-5-5-5-|
PM                                                * * *

VERSE: 
|---0------0----------------------|
|---------------------------------|
|-9------9------12-12-------12--0-|
|-9---XX-8---XX-11----XX-14----X--|
|-7---XX-7---XX-10----XX-10----X--|
|---------------------------------|

|---------------------------------|
|---------------------------------|
|---9------9----12-12----12-12----|
|-9---XX-8---XX-11-------11----XX-|
|-7---XX-7---XX-10-------10----XX-|
|---------------------------------|

|---0------0----------------------|
|---------------------------------|
|-9------9------12-12-------12--0-|
|-9---XX-8---XX-11----XX-14----X--|
|-7---XX-7---XX-10----XX-10----X--|
|---------------------------------|

|---0------0----------------------|
|---------------------------------|
|-9------9------12-12-12-12-12-12-|
|-9---XX-8---XX-11----11-11-11-11-|
|-7---XX-7---XX-10----10-10-10-10-|
|---------------------------------|

CHORUS:
|-----------------------------------------------------|
|-----------------------------------------------------|
|-------------4-4-4-----5-5---------------4-4-4-------|
|-----------------------5-5---------------------------|
|--/5-5-5-5-3------------------/5-5-5-5-3-------------|
|-2---------3-------5-5-------2---------3-------5-5-0-|-----\
                                                             x2
|---------------------------------------------------------|-/
|---------------------------------------------------------|
|-------------4-4-4-----5-5-------------------------------|
|-----------------------5-5--2----------------------------|
|--/5-5-5-5-3----------------2----------------------------|
|-2---------3-------5-5------2--0-0-0-0--0-0-0-0-0--0-0-0-|
PM                              * * * *  * * * * *  * * *

|----------------------------|   |----------------------|
|----------------------------|   |----------------------|
|----------------------------|   |----------------------|
|-3\2--x-x-x-3\2-x-x-x---3\2-|x3 |-6\5---5-5---5--5-5-5-| x2
|-3\2--x-x-x-3\2-x-x-x-0-3\2-|   |-6\5---5-5---5--5-5-5-|
|-3\2--x-x-x-3\2-x-x-x-0-3\2-|   |-6\5---5-5---5--5-5-5-|
PM                                                  * *

|---------------------------------------|
|---------------------------------------|
|-9------------------------12-----------|
|-9----9p7h8-------/11-----11-14----x-x-|
|-7----7---7-------/10-----10-10----x-x-|
|---------------------------------------|

VERSE:
|-----------------------------------------------------------------|
|-----------------------------------------------------------------|
|-----------------------------------------------------------------|
|-----------------------------------------------------------------| x4
|-3-2---------3-2---2--2---------3-2----------3-2---5-5---5---5---|
|-3-2-----x---3-2---2--2-----0-0-3-2------x---3-2---5-5---5---5---|
PM* *     *   * *   *  *     * * * *      *   * *   * *   *   *

|--------------------------------|   |--------------------------------|
|--------------------------------|   |--------------------------------|
|--------------------------------|   |--------------------------------|
|-2------------------------------|x3 |--------------------------------|
|-2------------------------------|   |--------------------------------|
|-2------------------------------|   |---------------------------x--x-|

|-------------------------------------------------------|
|-------------------------------------------------------|
|-------------------------------------------------------|
|-------------------------------------------------------|
|-------------------------------------------------------|
|--3-2--2/14--3-2--3-2--5-5--3-2--2/14--3-2--6\5--5--5--|
PM * *  *  *  * *  * *  * *  * *  *  *  * *  * *  *  * 

|-------------------------------------------------------|
|-------------------------------------------------------|
|-------------------------------------------------------|
|-------------------------------------------------------|
|---------------------------------------3-2-------5--5--|
|--3-2--2/14--3-2--3-2--5-0--3-2--2/14--3-2--6\5--5--5--|
PM * *  *  *  * *  * *  * *

CHORUS:
|-----------------------------------------------------|
|-----------------------------------------------------|
|-------------4-4-4-----5-5---------------4-4-4-------|
|-----------------------5-5---------------------------|
|--/5-5-5-5-3------------------/5-5-5-5-3-------------|
|-2---------3-------5-5-------2---------3-------5-5-0-|-----\
                                                             x2
|---------------------------------------------------------|-/
|---------------------------------------------------------|
|-------------4-4-4-----5-5-------------------------------|
|-----------------------5-5--2----------------------------|
|--/5-5-5-5-3----------------2----------------------------|
|-2---------3-------5-5------2--0-0-0-0--0-0-0-0-0--0-0-0-|
PM                              * * * *  * * * * *  * * *

|----------------------------|   |----------------------|
|----------------------------|   |----------------------|
|----------------------------|   |----------------------|
|-3\2--x-x-x-3\2-x-x-x---3\2-|x3 |-6\5---5-5---5--5-5-5-| x2
|-3\2--x-x-x-3\2-x-x-x-0-3\2-|   |-6\5---5-5---5--5-5-5-|
|-3\2--x-x-x-3\2-x-x-x-0-3\2-|   |-6\5---5-5---5--5-5-5-|
PM                                                  * *

INTERLUDE:
|----0--0------0--0------0--0-----0--0----------0----------0-----|
|---------0---------0---------0--------0-----1----1-----3----3---|
|--------------------------------------------2----------4------4-|
|--------------------------------------------2----------4--------| x2
|-----------3-------------------3---------0----------2-----------|
|-2-------------------2------------------------------------------|

|-------0-------------------------------------|
|----1----1-----------------------------------|
|----2----------------------------------------|
|----2-------4-4-4-4-4-4-4-4-4-4-4-4-44444444-|
|-0----------2-2-2-2-2-2-2-2-2-2-2-2-22222222-|
|---------------------------------------------|
PM           * * * * * * * '

CHORUS:
|-----------------------------------------------------|
|-----------------------------------------------------|
|-------------4-4-4-----5-5---------------4-4-4-------|
|-----------------------5-5---------------------------|
|--/5-5-5-5-3------------------/5-5-5-5-3-------------|
|-2---------3-------5-5-------2---------3-------5-5-0-|-----\
                                                             x2
|---------------------------------------------------------|-/
|---------------------------------------------------------|
|-------------4-4-4-----5-5-------------------------------|
|-----------------------5-5--2----------------------------|
|--/5-5-5-5-3----------------2----------------------------|
|-2---------3-------5-5------2--0-0-0-0--0-0-0-0-0--0-0-0-|
PM                              * * * *  * * * * *  * * *

OUTRO:
|---------------------------------|   |---------------------------------|
|---------------------------------|   |---------------------------------|
|---------------------------------|   |---------------------------------|
|-3\2-x-x-x-x-3\2-x-x-x-x-3\2-x-x-|x7 |-3\2-x-x-x-x-3\2-x-x-x-x-3\2-----|
|-3\2-x-x-x-x-3\2-x-x-x-x-3\2-x-x-|   |-3\2-x-x-x-x-3\2-x-x-x-x-3\2-----|
|-3\2-x-x-x-x-3\2-x-x-x-x-3\2-x-x-|   |-3\2-x-x-x-x-3\2-x-x-x-x-3\2-----|

Again, I promise you this tab is 100% correct. Have fun!
comments
print report bad tab
1 comment total.
0 reply
blindman-07 wrote on September 23 2007, 05:14 pm

drop d and down half a step is just drop c# or drop db

I want to post or [tab]
guest
You may want to rate the tab now too:
select rating
Please do not post tabs as comments. Select "correction" instead!