Oops, an error
Loading. Please wait.

Awaken Tab

version 4
version 4

Whole song

Interactive

896 views 1 this week
1 commentread comment
1 2 3 4 5
please rate
add to favorites
launch autoscroll
font size
0
reset
how to read this tab
guitar tuner
Autoscroll
slow
fast
+/-
esc
set tempo
stop
Help us to improve Ultimate-Guitar.com Take our survey!
×
Author
Difficulty
Tuning
intermediate
C# G# C# F# A# D#
Gtr I (Db Ab Db Gb Bb Eb) - 'Guitar 1'
Gtr II (Db Ab Db Gb Bb Eb) - 'Guitar 1 w/flanger'


   Intro
    Moderately Q=102
    F5E5     F5E5    F5E5G#5G5      F5E5     F5E5    G#5G5  C5/G
   4/4
    Gtr I
    S E  S E S S +S  S E  S S S S   S E  S E S S +S   S E E  E
||--------------------------------|-----------------------------|
||o-------------------------------|-----------------------------|
||--------------------------------|-------------------------<5>-|
||------/3-2----------------------|-----/3-2----------------<5>-|
||o-3-2------3-2-(2)-3-2-/6-5-5-5-|-3-2------3-2-(2)-/6-5-5-----|
||--3-2------3-2-(2)-3-2-/6-5-5-5-|-3-2------3-2-(2)-/6-5-5-----|


  F5E5     F5E5    F5E5G#5G5      F5E5     F5E5    G5  G5
                                                       PM--|
                                                       |-3-|
  S E  S E S S +S  S E  S S S S   S E  S E S S +E  S S E E E
|-------------------------------|-----------------------------||
|-------------------------------|----------------------------o||
|-------------------------------|-----------------------------||
|-----/3-2----------------------|-----/3-2--------------------||
|-3-2------3-2-(2)-3-2-/6-5-5-5-|-3-2------3-2-(2)-5-5-5-5-5-o||
|-3-2------3-2-(2)-3-2-/6-5-5-5-|-3-2------3-2-(2)-5-5-5-5-5--||


 Verse
  E5                 C
  Gtr II
  Q.   E +Q.   S S   Q.   E +Q.   S S
|------0-(0)-------|------0-(0)--------|
|------------------|-------------------|
|-9----------------|-9-----------------|
|-9------------x-x-|-8------------x-x/-|
|-7------------x-x-|-7------------x-x/-|
|------------------|-------------------|


  C                      Em/G
    Q.    E  +Q.   S S    Q.    E  +Q.   S S
|----------------------|---------------------|
|----------------------|-------------------0-|
|-/12----12-(12)-------|-------12-(12)-------|
|-/11--------------x-x-|-14--------------x---|
|-/10--------------x-x-|-10--------------x---|
|----------------------|---------------------|


  E5                 C
  Q.   E +Q.   S S   Q.   E +Q.   S S
|------0-(0)-------|------0-(0)-------|
|------------------|------------------|
|-9----------------|-9----------------|
|-9------------x-x-|-8------------x-x-|
|-7------------x-x-|-7------------x-x-|
|------------------|------------------|


  C                  C
   Q.    E  +H        Q.    E  +Q.   S S
|------------------|---------------------|
|------------------|---------------------|
|-12----12-(12)----|-12----12-(12)-------|
|-11---------------|-11--------------x-x-|
|-10---------------|-10--------------x-x-|
|------------------|---------------------|


  E5                 C
  Q.   E +Q.   S S   Q.   E +Q.   S S
|------0-(0)-------|------0-(0)--------|
|------------------|-------------------|
|-9----------------|-9-----------------|
|-9------------x-x-|-8------------x-x/-|
|-7------------x-x-|-7------------x-x/-|
|------------------|-------------------|


  C                      Em/G
    Q.    E  +Q.   S S    Q.    E  +Q.   S S
|----------------------|---------------------|
|----------------------|-------------------0-|
|-/12----12-(12)-------|-------12-(12)-------|
|-/11--------------x-x-|-14--------------x---|
|-/10--------------x-x-|-10--------------x---|
|----------------------|---------------------|


  E5                 C
  Q.   E +Q.   S S   Q.   E +Q.   S S
|------0-(0)-------|------0-(0)-------|
|------------------|------------------|
|-9----------------|-9----------------|
|-9------------x-x-|-8------------x-x-|
|-7------------x-x-|-7------------x-x-|
|------------------|------------------|


  C                  C
   Q.    E  +H        Q.    E  +S   S  E  E  E
|------------------|---------------------------|
|------------------|---------------------------|
|-12----12-(12)----|-12----12-(12)-12-12-12-12-|
|-11---------------|-11----11-(11)-11-11-11-11-|
|-10---------------|-10----10-(10)-10-10-10-10-|
|------------------|---------------------------|


 Chorus
             F5              C5/G             F5
  Gtr I
  E  S S S S E +S  S S S S S S S   E  S S S S E +S  S S S S S E
|--------------------------------|------------------------------|
|--------------------------------|------------------------------|
|------------------4-4-4-----5-5-|------------------4-4-4-------|
|----------------------------5-5-|------------------------------|
|---/5-5-5-5-3-(3)---------------|---/5-5-5-5-3-(3)-------------|
|-2----------3-(3)-------5-5-----|-2----------3-(3)-------5-5-0-|


             F5              C5/G  E5
                                     PM------------------------|
  E  S S S S E +S  S S S S S S S   e S S S S S S S S S S S S S S
|--------------------------------|-------------------------------|
|--------------------------------|-------------------------------|
|------------------4-4-4-----5-5-|-------------------------------|
|----------------------------5-5-|-2-----------------------------|
|---/5-5-5-5-3-(3)---------------|-2-----------------------------|
|-2----------3-(3)-------5-5-----|-2-0-0-0-0---0-0-0-0-0---0-0-0-|


             F5              C5/G             F5
  E  S S S S E +S  S S S S S S S   E  S S S S E +S  S S S S S E
|--------------------------------|------------------------------|
|--------------------------------|------------------------------|
|------------------4-4-4-----5-5-|------------------4-4-4-------|
|----------------------------5-5-|------------------------------|
|---/5-5-5-5-3-(3)---------------|---/5-5-5-5-3-(3)-------------|
|-2----------3-(3)-------5-5-----|-2----------3-(3)-------5-5-0-|


             F5              C5/G  E5
                                     PM------------------------|
  E  S S S S E +S  S S S S S S S   e S S S S S S S S S S S S S S
|--------------------------------|-------------------------------|
|--------------------------------|-------------------------------|
|------------------4-4-4-----5-5-|-------------------------------|
|----------------------------5-5-|-2-----------------------------|
|---/5-5-5-5-3-(3)---------------|-2-----------------------------|
|-2----------3-(3)-------5-5-----|-2-0-0-0-0---0-0-0-0-0---0-0-0-|


    F5E5      F5E5      D5F5E5    F5E5      F5E5      D5F5E5
    S e S S S S S S S S S S S E   S e S S S S S S S S S S S E
||------------------------------|-----------------------------|
||o-----------------------------|-----------------------------|
||------------------------------|-----------------------------|
||--3s2-------3s2---------3-2---|-3s2-------3s2---------3-2---|
||o-3s2-x-x-x-3s2-x-x-x-0-3-2---|-3s2-x-x-x-3s2-x-x-x-0-3-2---|
||--3s2-x-x-x-3s2-x-x-x-0-3-2---|-3s2-x-x-x-3s2-x-x-x-0-3-2---|


  F5E5      F5E5      D5F5E5    G#G5
  S e S S S S S S S S S S S E   S E. +E  S S +S  E. S S E
|-----------------------------|----------------------------||
|-----------------------------|---------------------------o||
|-----------------------------|----------------------------||
|-3s2-------3s2---------3-2---|-6s5--(5)-5-5-(5)-5--x-x-5--||
|-3s2-x-x-x-3s2-x-x-x-0-3-2---|-6s5--(5)-5-5-(5)-5--x-x-5-o||
|-3s2-x-x-x-3s2-x-x-x-0-3-2---|-6s5--(5)-5-5-(5)-5--x-x-5--||


  E5         E5    C          C             C    Em/G
  Gtr II
  H    +Q.   S S   W            H     +Q.    E    H     +Q.   S S
|----------------|----------|------------------|------------------|
|----------------|----------|------------------|------------------|
|-9----(9)-------|----------|---------------12-|------------------|
|-9----(9)---9p7-|-8--------|-/11----(11)---11-|-14----(14)---x-x-|
|-7----(7)---7---|-7--------|-/10----(10)---10-|-10----(10)---x-x-|
|----------------|----------|------------------|------------------|


 Verse 2
  F5E5    F5E5                F5E5    F5E5    G5
  Gtr I
  PM------------------------------------------------|
  S S E E S S +S  S E E S S   S S E E S S +S  S E E E
|---------------------------|-------------------------|
|---------------------------|-------------------------|
|---------------------------|-------------------------|
|---------------------------|-------------------------|
|-3-2-----3-2-(2)-2-2-------|-3-2-----3-2-(2)-5-5-5-5-|
|-3-2---x-3-2-(2)-2-2---0-0-|-3-2---x-3-2-(2)-5-5-5-5-|


    F5E5    F5E5                F5E5    F5E5    G5
    PM------------------------------------------------|
    S S E E S S +S  S E E S S   S S E E S S +S  S E E E  3x
||----------------------------|--------------------------||
||o---------------------------|-------------------------o||
||----------------------------|--------------------------||
||----------------------------|--------------------------||
||o-3-2-----3-2-(2)-2-2-------|-3-2-----3-2-(2)-5-5-5-5-o||
||--3-2---x-3-2-(2)-2-2---0-0-|-3-2---x-3-2-(2)-5-5-5-5--||


  E5
  W          +W           +W           +H     +Q.   S S
|----------|------------|------------|-------------------|
|----------|------------|------------|-------------------|
|----------|------------|------------|-------------------|
|-2--------|-(2)--------|-(2)--------|-(2)----(2)--------|
|-2--------|-(2)--------|-(2)--------|-(2)----(2)--------|
|-2--------|-(2)--------|-(2)--------|-(2)----(2)---x-x--|


  PM----------------------------------------------------|
  S E  S E S S +S  S E  S E S   S E  S E S S +S   S E E E
|-----------------------------|---------------------------|
|-----------------------------|---------------------------|
|-----------------------------|---------------------------|
|-----/3-2--------------------|-----/3-2------------------|
|-----------------------------|---------------------------|
|-3-2------3-2-(2)-3-2-/6-5-5-|-3-2------3-2-(2)-/6-5-5-5-|


                                        F5E5         G5
  PM------------------------|
  S E  S E S S +S  S E  S E S   S E S E S S +S   S E E E
|-----------------------------|--------------------------|
|-----------------------------|--------------------------|
|-----------------------------|--------------------------|
|-----/3-2--------------------|-----3-2------------------|
|-----------------------------|---------3-2-(2)------5-5-|
|-3-2------3-2-(2)-3-2-/6-5-0-|-3-2-----3-2-(2)-/6-5-5-5-|


 Chorus 2 & 3
  $
             F5              C5/G             F5
  Gtr I
  E  S S S S E +S  S S S S S S S   E  S S S S E +S  S S S S S E
|--------------------------------|------------------------------|
|--------------------------------|------------------------------|
|------------------4-4-4-----5-5-|------------------4-4-4-------|
|----------------------------5-5-|------------------------------|
|---/5-5-5-5-3-(3)---------------|---/5-5-5-5-3-(3)-------------|
|-2----------3-(3)-------5-5-----|-2----------3-(3)-------5-5-0-|


             F5              C5/G  E5
                                     PM------------------------|
  E  S S S S E +S  S S S S S S S   e S S S S S S S S S S S S S S
|--------------------------------|-------------------------------|
|--------------------------------|-------------------------------|
|------------------4-4-4-----5-5-|-------------------------------|
|----------------------------5-5-|-2-----------------------------|
|---/5-5-5-5-3-(3)---------------|-2-----------------------------|
|-2----------3-(3)-------5-5-----|-2-0-0-0-0---0-0-0-0-0---0-0-0-|


             F5              C5/G             F5
  E  S S S S E +S  S S S S S S S   E  S S S S E +S  S S S S S E
|--------------------------------|------------------------------|
|--------------------------------|------------------------------|
|------------------4-4-4-----5-5-|------------------4-4-4-------|
|----------------------------5-5-|------------------------------|
|---/5-5-5-5-3-(3)---------------|---/5-5-5-5-3-(3)-------------|
|-2----------3-(3)-------5-5-----|-2----------3-(3)-------5-5-0-|


                                                        To Coda
             F5              C5/G  E5
                                     PM------------------------|
  E  S S S S E +S  S S S S S S S   e S S S S S S S S S S S S S S
|--------------------------------|-------------------------------|
|--------------------------------|-------------------------------|
|------------------4-4-4-----5-5-|-------------------------------|
|----------------------------5-5-|-2-----------------------------|
|---/5-5-5-5-3-(3)---------------|-2-----------------------------|
|-2----------3-(3)-------5-5-----|-2-0-0-0-0---0-0-0-0-0---0-0-0-|


    F5E5      F5E5      D5F5E5    F5E5      F5E5      D5F5E5
    S e S S S S S S S S S S S E   S e S S S S S S S S S S S E
||------------------------------|-----------------------------|
||o-----------------------------|-----------------------------|
||------------------------------|-----------------------------|
||--3s2-------3s2---------3-2---|-3s2-------3s2---------3-2---|
||o-3s2-x-x-x-3s2-x-x-x-0-3-2---|-3s2-x-x-x-3s2-x-x-x-0-3-2---|
||--3s2-x-x-x-3s2-x-x-x-0-3-2---|-3s2-x-x-x-3s2-x-x-x-0-3-2---|


  F5E5      F5E5      D5F5E5    G#G5
  S e S S S S S S S S S S S E   S E. +E  S S +S  E. S S E
|-----------------------------|----------------------------||
|-----------------------------|---------------------------o||
|-----------------------------|----------------------------||
|-3s2-------3s2---------3-2---|-6s5--(5)-5-5-(5)-5--x-x-5--||
|-3s2-x-x-x-3s2-x-x-x-0-3-2---|-6s5--(5)-5-5-(5)-5--x-x-5-o||
|-3s2-x-x-x-3s2-x-x-x-0-3-2---|-6s5--(5)-5-5-(5)-5--x-x-5--||


  E5
              >
  W          +W
|----------|--------|
|----------|--------|
|----------|--------|
|-2--------|-(2)----|
|-2--------|-(2)----|
|-2--------|-(2)----|


   Bridge
    Gtr I
    Q  Q  +E  Q  E   Q  Q  +E  Q  E   Q  Q  +E  Q  E
||-----0--(0)-0----|----0--(0)-0----|----0--(0)-0----|
||o--------------0-|--------------0-|--------------0-|
||-----------------|----------------|----------------|
||-----------------|----------------|----------------|
||o----------------|-3--------------|----------------|
||--2--------------|----------------|-2--------------|


                      Am/E             Bm/F#
  Q  Q  +E  Q  E   Q  Q  +E  Q  E   Q  Q  +E  E E E
|----0--(0)-0----|-----------0----|-----------0------||
|--------------0-|----1--(1)----1-|----3--(3)---3---o||
|----------------|----2--(2)------|----4--(4)-----4--||
|----------------|----2--(2)------|----4--(4)--------||
|-3--------------|-0--------------|-2---------------o||
|----------------|----------------|------------------||


                                               D.S. al Coda
     Am/E          B5
                                             <
  Q  Q  +E  Q  E   E E E E E E E E   E E E E S S S S S S S S
|-----------0----|-----------------|-------------------------|
|----1--(1)----1-|-----------------|-------------------------|
|----2--(2)------|-----------------|-------------------------|
|----2--(2)------|-4-4-4-4-4-4-4-4-|-4-4-4-4-4-4-4-4-4-4-4-4-|
|-0--------------|-2-2-2-2-2-2-2-2-|-2-2-2-2-2-2-2-2-2-2-2-2-|
|----------------|-----------------|-------------------------|


 Outro
  &
  F5E5        F5E5        F5E5      F5E5        F5E5        F5E5
  S S S S S S S S S S S S S S S S   S S S S S S S S S S S S S S S S
|---------------------------------|---------------------------------|
|---------------------------------|---------------------------------|
|---------------------------------|---------------------------------|
|-3-2---------3-2---------3-2-----|-3-2---------3-2---------3-2-----|
|-3-2-x-x-x-x-3-2-x-x-x-x-3-2-x-x-|-3-2-x-x-x-x-3-2-x-x-x-x-3-2-x-x-|
|-3-2-x-x-x-x-3-2-x-x-x-x-3-2-x-x-|-3-2-x-x-x-x-3-2-x-x-x-x-3-2-x-x-|


  F5E5        F5E5        F5E5      F5E5        F5E5        F5E5
  S S S S S S S S S S S S S S S S   S S S S S S S S S S S S S S S S
|---------------------------------|---------------------------------|
|---------------------------------|---------------------------------|
|---------------------------------|---------------------------------|
|-3-2---------3-2---------3-2-----|-3-2---------3-2---------3-2-----|
|-3-2-x-x-x-x-3-2-x-x-x-x-3-2-x-x-|-3-2-x-x-x-x-3-2-x-x-x-x-3-2-x-x-|
|-3-2-x-x-x-x-3-2-x-x-x-x-3-2-x-x-|-3-2-x-x-x-x-3-2-x-x-x-x-3-2-x-x-|


  F5E5        F5E5        F5E5      F5E5        F5E5        F5E5
  S S S S S S S S S S S S S S S S   S S S S S S S S S S S S S S S S
|---------------------------------|---------------------------------|
|---------------------------------|---------------------------------|
|---------------------------------|---------------------------------|
|-3-2---------3-2---------3-2-----|-3-2---------3-2---------3-2-----|
|-3-2-x-x-x-x-3-2-x-x-x-x-3-2-x-x-|-3-2-x-x-x-x-3-2-x-x-x-x-3-2-x-x-|
|-3-2-x-x-x-x-3-2-x-x-x-x-3-2-x-x-|-3-2-x-x-x-x-3-2-x-x-x-x-3-2-x-x-|


  F5E5        F5E5        F5E5      F5E5        F5E5        F5E5
  S S S S S S S S S S S S S S S S   S S S S S S S S S S S S S S E   W
|---------------------------------|-------------------------------|------*|
|---------------------------------|-------------------------------|------*|
|---------------------------------|-------------------------------|------*|
|-3-2---------3-2---------3-2-----|-3-2---------3-2---------3-2---|------*|
|-3-2-x-x-x-x-3-2-x-x-x-x-3-2-x-x-|-3-2-x-x-x-x-3-2-x-x-x-x-3-2---|------*|
|-3-2-x-x-x-x-3-2-x-x-x-x-3-2-x-x-|-3-2-x-x-x-x-3-2-x-x-x-x-3-2---|------*|




--------------------------------------------------------------------------------


Duration Legend
---------------
W - whole; H - half; Q - quarter; E - 8th; S - 16th; T - 32nd; X - 64th; a - acciaccatura
+ - note tied to previous; . - note dotted; .. - note double dotted
Uncapitalized letters represent notes that are staccato (1/2 duration)
Irregular groupings are notated above the duration line
Duration letters will always appear directly above the note/fret number it represents the
duration for.  Duration letters with no fret number below them represent rests.  Multi-
bar rests are notated in the form Wxn, where n is the number of bars to rest for.  Low
melody durations appear below the staff

Tablature Legend
----------------
 h   - hammer-on
 p   - pull-off
 b   - bend
 pb  - pre-bend
 r   - bend release (if no number after the r, then release immediately)
 /\  - slide into or out of (from/to "nowhere")
 s   - legato slide
 S   - shift slide
 - natural harmonic
[n]  - artificial harmonic
n(n) - tapped harmonic
 ~   - vibrato
 tr  - trill
 T   - tap
 TP  - trem. picking
 PM  - palm muting
\n/  - tremolo bar dip; n = amount to dip
 \n  - tremolo bar down
 n/  - tremolo bar up
/n\  - tremolo bar inverted dip
 =   - hold bend; also acts as connecting device for hammers/pulls
 <> - volume swell (louder/softer)
 x   - on rhythm slash represents muted slash
 o   - on rhythm slash represents single note slash

Misc Legend
-----------
 |  - bar
||  - double bar
||o - repeat start
o|| - repeat end
*|  - double bar (ending)
 :  - bar (freetime)
 $  - Segno
 &  - Coda
Tempo markers -  = BPM(8/16=s8/s16), where s8 = swing 8ths, s16 = swing 16ths

Suggest correction
What's this?
You can suggest a correction to this tab. Community and Mods will review your correction and vote to approve or reject it.
comments
We did not receive enough feedback on this tab! Please rate:
print report bad tab
1 2 3 4 5
1 comment total.
0 reply
10kf.iskickass 615 wrote on March 16 2007, 02:58 pm

i've noticed this about awaken tabs and i wanted to say: in the intro, the first harmonic is slightly lower pitched than the second, its not the same. just my two cents

guest
You may want to rate the tab now too:
select rating
Please do not post tabs as comments. Select "correction" instead!