Oops, an error
Loading. Please wait.

Believe Tab

version 1
version 1

Album

Whole song

Interactive

31,866 views 45 this week
31 commentsread comments
1 2 3 4 5
excellent!
x 37
add to favorites
launch autoscroll
font size
0
reset
how to read this tab
guitar tuner
Tab Pro tools
  • play this tab
  • loop segment
  • change instrument
  • show fretboard
  • metronome
Autoscroll
slow
fast
+/-
esc
set tempo
stop
Contributor
Disturbed
Believe

Tune: Db Ab Db Gb Bb Eb

p = pull off
/ = slide up
pm = palm mute

|------------------------------------------|
|------------------------------------------|
|------------------------------------------|
|-7-7-7--7/10-10-10--10-10-10-10--10-8-8-7-|
|-5-5-5--5-5--5--5---5-/8--8--8---8--5-5-5-|
|-5-5-5--5-5--5--5---5-/8--8--8---8--0-0-0-|

|------------------------------------------------|
|------------------------------------------------|
|------------------------------------------------|
|-7-7-7--7/10-10-10--10-10-10-10--10-------------|
|-5-5-5--5-5--5--5---5-/8--8--8---8--0-0-0-0-0-0-|
|-5-5-5--5-5--5--5---5-/8--8--8---8--0-0-0-0-0-0-|
                                    [----pm-----]

|----------------------------------|
|----------------------------------|
|----------------------------------|
|----------------------------8-8-7-|
|----------------------------5-5-5-|
|-5-5-5--5-5-5-5--5-8-8-8--8-0-0-0-|
 [--------------pm----------------]

|----------------------------------------|
|----------------------------------------|
|----------------------------------------|
|----------------------------------------|
|----------------------------------------|
|-5-5-5--5-5-5-5--5-8-8-8--8-0-0-0-0-0-0-|
 [-----------------pm-------------------]

|--------------------------------------|
|--------------------------------------|
|--------------------------------------|
|-7-7-7----------------------8-8-7-----|
|-5-5-5----------------------5-5-5-----|
|-5-5-5--5-5-5-5--5-8-8-8--8-0-0-0-----|
        [--------pm--------]

|----------------------------------------|
|----------------------------------------|
|----------------------------------------|
|-7-7-7----------------------------------|
|-5-5-5----------------------------------|
|-5-5-5--5-5-5-5--5-8-8-8--8-0-0-0-0-0-0-|
         [--------------pm-------------]

|-------------------------------------------------|
|-------------------------------------------------|
|-3-3-3-2-2-2-------------------------------------|
|-3-3-3-3-3-3-3-3-3-6-3-6/5-8-5-8-1-1/5-8-5-8-1-1-|
|-1-1-1-1-1-1-3-3-3-6-3-6/5-8-5-8-1-1/5-8-5-8-1-1-|
|-------------3-3-3---3--/5---5---1-1/5---5---1-1-|

|----------------------------------------------------
|----------------------------------------------------
|-3-3-3-2-2-2----------------------------------------
|-3-3-3-3-3-3-3-3-3-6-3-6-5-5-5-10-10-10-1-1-1-3-3-1-
|-1-1-1-1-1-1-3-3-3-6-3-6-5-5-5-10-10-10-1-1-1-3-3-1-
|-------------3-3-3---3---5-5-5-10-10-10-1-1-1-3-3-1-

 -------------------------------------------------------
 -------------------------------------------------------
 -------------------------------------------8-8-8-------
 -5-5-5-10-10-10-1-1-1-3-3-1-5-5-5-10-10-10-8-8-8-8-8-8-
 -5-5-5-10-10-10-1-1-1-3-3-1-5-5-5-10-10-10-6-6-6-8-8-8-
 -5-5-5-10-10-10-1-1-1-3-3-1-5-5-5-10-10-10-------8-8-8-

 --------------------------------------------------|
 --------------------------------------------------|
 --------------------------------------------------|
 -5-5-5-10-10-10-1-1-1-3-3-1-6-6-6-6-6-6-6-6-6-6-6-|
 -5-5-5-10-10-10-1-1-1-3-3-1-6-6-6-6-6-6-6-6-6-6-6-|
 -5-5-5-10-10-10-1-1-1-3-3-1-6-6-6-6-6-6-6-6-6-6-6-|
                               [-----pm----]

|------------------------------------------|
|------------------------------------------|
|------------------------------------------|
|-7-7-7--7/10-10-10--10-10-10-10--10-8-8-7-|
|-5-5-5--5-5--5--5---5-/8--8--8---8--5-5-5-|
|-5-5-5--5-5--5--5---5-/8--8--8---8--0-0-0-|

|------------------------------------------------|
|------------------------------------------------|
|------------------------------------------------|
|-7-7-7--7/10-10-10--10-10-10-10--10-------------|
|-5-5-5--5-5--5--5---5-/8--8--8---8--0-0-0-0-0-0-|
|-5-5-5--5-5--5--5---5-/8--8--8---8--0-0-0-0-0-0-|
                                    [----pm-----]

|----------------------------------|
|----------------------------------|
|----------------------------------|
|----------------------------8-8-7-|
|----------------------------5-5-5-|
|-5-5-5--5-5-5-5--5-8-8-8--8-0-0-0-|
 [--------------pm----------------]

|----------------------------------------|
|----------------------------------------|
|----------------------------------------|
|----------------------------------------|
|----------------------------------------|
|-5-5-5--5-5-5-5--5-8-8-8--8-0-0-0-0-0-0-|
 [-----------------pm-------------------]

|--------------------------------------|
|--------------------------------------|
|--------------------------------------|
|-7-7-7----------------------8-8-7-----|
|-5-5-5----------------------5-5-5-----|
|-5-5-5--5-5-5-5--5-8-8-8--8-0-0-0-----|
        [--------pm--------]

|----------------------------------------|
|----------------------------------------|
|----------------------------------------|
|-7-7-7----------------------------------|
|-5-5-5----------------------------------|
|-5-5-5--5-5-5-5--5-8-8-8--8-0-0-0-0-0-0-|
         [--------------pm-------------]

|-------------------------------------------------|
|-------------------------------------------------|
|-3-3-3-2-2-2-------------------------------------|
|-3-3-3-3-3-3-3-3-3-6-3-6/5-8-5-8-1-1/5-8-5-8-1-1-|
|-1-1-1-1-1-1-3-3-3-6-3-6/5-8-5-8-1-1/5-8-5-8-1-1-|
|-------------3-3-3---3--/5---5---1-1/5---5---1-1-|

|----------------------------------------------------
|----------------------------------------------------
|-3-3-3-2-2-2----------------------------------------
|-3-3-3-3-3-3-3-3-3-6-3-6-5-5-5-10-10-10-1-1-1-3-3-1-
|-1-1-1-1-1-1-3-3-3-6-3-6-5-5-5-10-10-10-1-1-1-3-3-1-
|-------------3-3-3---3---5-5-5-10-10-10-1-1-1-3-3-1-

 -------------------------------------------------------
 -------------------------------------------------------
 -------------------------------------------8-8-8-------
 -5-5-5-10-10-10-1-1-1-3-3-1-5-5-5-10-10-10-8-8-8-8-8-8-
 -5-5-5-10-10-10-1-1-1-3-3-1-5-5-5-10-10-10-6-6-6-8-8-8-
 -5-5-5-10-10-10-1-1-1-3-3-1-5-5-5-10-10-10-------8-8-8-

 --------------------------------------------------|
 --------------------------------------------------|
 --------------------------------------------------|
 -5-5-5-10-10-10-1-1-1-3-3-1-6-6-6-6-6-6-6-6-6-6-6-|
 -5-5-5-10-10-10-1-1-1-3-3-1-6-6-6-6-6-6-6-6-6-6-6-|
 -5-5-5-10-10-10-1-1-1-3-3-1-6-6-6-6-6-6-6-6-6-6-6-|
                               [-----pm----]

|-------------------------------------------------------------|
|-------------------------------------------------------------|
|-------------------------------------------------------------|
|-0------------------------------------------------------3--3-|
|-0--------8p7-----7p5-----5p3p0-/8------8p7-----7p5-----1--1-|
|-0---0--0-----0-0-----0-0----------0--0-----0-0-----0-0------|

|--------------------------------------------------------------------------
|--------------------------------------------------------------------------
|--------------------------------------------------------------------------
|--------------------------------------------------------------------------
|-------------8p7---------7p5---------5p3p0-/8-------------8p7---------7p5-
|-0-0-0-0-0-0-----0-0-0-0-----0-0-0-0----------0-0-0-0-0-0-----0-0-0-0-----
  [----pm----]    [--pm--]    [--pm--]         [----pm----]    [--pm--]

 ---------------|
 ---------------|
 ---------------|
 ---------3-3-3-|
 ---------1-1-1-|
 -0-0-0-0-------|
  [--pm--]

|------------------------------------------|
|------------------------------------------|
|------------------------------------------|
|-7-7-7--7/10-10-10--10-10-10-10--10-8-8-7-|
|-5-5-5--5-5--5--5---5-/8--8--8---8--5-5-5-|
|-5-5-5--5-5--5--5---5-/8--8--8---8--0-0-0-|

|-------------------------------------------------|
|-------------------------------------------------|
|-3-3-3-2-2-2-------------------------------------|
|-3-3-3-3-3-3-3-3-3-6-3-6/5-8-5-8-1-1/5-8-5-8-1-1-|
|-1-1-1-1-1-1-3-3-3-6-3-6/5-8-5-8-1-1/5-8-5-8-1-1-|
|-------------3-3-3---3--/5---5---1-1/5---5---1-1-|

|------------------------------------------------------
|------------------------------------------------------
|-3-3-3-2-2-2------------------------------------------
|-3-3-3-3-3-3-3-3-3-6-3-6-5-5-5-10-10-10-1-1-1-3-3-3-1-
|-1-1-1-1-1-1-3-3-3-6-3-6-5-5-5-10-10-10-1-1-1-3-3-3-1-
|-------------3-3-3---3---5-5-5-10-10-10-1-1-1-3-3-3-1-
                                               [-pm-]
 -------------------------------------------------------
 -------------------------------------------------------
 -------------------------------------------8-8-8-------
 -5-5-5-10-10-10-1-1-1-3-3-1-5-5-5-10-10-10-8-8-8-8-8-8-
 -5-5-5-10-10-10-1-1-1-3-3-1-5-5-5-10-10-10-6-6-6-8-8-8-
 -5-5-5-10-10-10-1-1-1-3-3-1-5-5-5-10-10-10-------8-8-8-

 -------------------------------------------------------
 -------------------------------------------------------
 -------------------------------------------8-8-8-------
 -5-5-5-10-10-10-1-1-1-3-3-1-5-5-5-10-10-10-8-8-8-8-8-8-
 -5-5-5-10-10-10-1-1-1-3-3-1-5-5-5-10-10-10-6-6-6-8-8-8-
 -5-5-5-10-10-10-1-1-1-3-3-1-5-5-5-10-10-10-------8-8-8-

 ----------------------------------------|
 ----------------------------------------|
 ----------------------------------------|
 -5--5-5-5-10--10-10-10-1--1-1-1-3-3-3-1-|
 -5--5-5-5-10--10-10-10-1--1-1-1-3-3-3-1-|
 -5--5-5-5-10--10-10-10-1--1-1-1-3-3-3-1-|
    [-pm-]     [--pm--]    [-pm-]

|------------------------------------------------------------------|
|------------------------------------------------------------------|
|------------------------------------------------------------------|
|-5--5-5-5-10--10-10-10-1--1-1-1-3-3-3-1-6-6-6-6-6-6-6-6-6-6-6-6-5-|
|-5--5-5-5-10--10-10-10-1--1-1-1-3-3-3-1-6-6-6-6-6-6-6-6-6-6-6-6-5-|
|-5--5-5-5-10--10-10-10-1--1-1-1-3-3-3-1-6-6-6-6-6-6-6-6-6-6-6-6-5-|
    [-pm-]     [--pm--]    [-pm-]        [-------pm-------]

thats it, have fun.
comments
print report bad tab
31 comments total. Showing first comments.
0 reply
Dream-Guitar wrote on December 23 2002, 12:00 am

WOW another great tab!!!

0 reply
Ashole wrote on December 26 2002, 12:00 am

amazing tab-- good job dude

0 reply
JuIcEITC wrote on December 26 2002, 12:00 am

KEEP PUMPIN OUT THEM TABS MAN,, HEH HEH HEH!!!

I want to post or [tab]
guest
You may want to rate the tab now too:
select rating
Please do not post tabs as comments. Select "correction" instead!