Oops, an error
Loading. Please wait.

Bound Tab

version 4
version 4

Whole song

1,071 views 1 this week
no commentswrite comment
1 2 3 4 5
please rate
add to favorites
launch autoscroll
font size
0
reset
how to read this tab
guitar tuner
Tab Pro tools
  • play this tab
  • loop segment
  • change instrument
  • show fretboard
  • metronome
×
Best way to learn
"Bound"
Autoscroll
slow
fast
+/-
esc
set tempo
stop
Contributor
Difficulty
Tuning
intermediate
C# G# C# F# A# D#
Gtr I (Db Ab Db Gb Bb Eb) - 'rhythm'
Gtr II (Db Ab Db Gb Bb Eb) - 'fill'


   Intro
    Moderately Fast Rock Q=97        1.
    N.C.
   4/4
    Gtr I
    S S S S S S S S S S S S S S S S   S S S S S S S S S S S S S S S S
||----------------------------------|----------------------------------||
||o---------------------------------|---------------------------------o||
||----------------------------------|----------------------------------||
||----------------------------------|----------------------------------||
||o---------------------------------|---------------------------------o||
||--3-3-3-0-0-0-2-2-2-5-5-5-5-5-5-5-|-3-3-3-0-0-0-2-2-2-5-5-5-2-2-5-5--||


  2.
                                   F5    D5    E5    G5
  S S S S S S S S S S S S S S E    S S S S S S S S S S S S S S S S
|-------------------------------||---------------------------------|
|-------------------------------||---------------------------------|
|-------------------------------||---------------------------------|
|-3-3-3-0-0-0-2-2-2-5-5-5-2-----||-3-3-3-0-0-0-2-2-2-5-5-5-5-5-5-5-|
|-------------------------------||-3-3-3-0-0-0-2-2-2-5-5-5-5-5-5-5-|
|-------------------------------||-3-3-3-0-0-0-2-2-2-5-5-5-5-5-5-5-|


  F5    D5    E5    G5    E5  G5    F5    D5    E5    G5
  S S S S S S S S S S S S S S S S   S S S S S S S S S S S S S S S S
|---------------------------------|---------------------------------|
|---------------------------------|---------------------------------|
|---------------------------------|---------------------------------|
|-3-3-3-0-0-0-2-2-2-5-5-5-2-2-5-5-|-3-3-3-0-0-0-2-2-2-5-5-5-5-5-5-5-|
|-3-3-3-0-0-0-2-2-2-5-5-5-2-2-5-5-|-3-3-3-0-0-0-2-2-2-5-5-5-5-5-5-5-|
|-3-3-3-0-0-0-2-2-2-5-5-5-2-2-5-5-|-3-3-3-0-0-0-2-2-2-5-5-5-5-5-5-5-|


  F5    D5    E5    G5    E5  G5
  S S S S S S S S S S S S S S S S
|---------------------------------||
|---------------------------------||
|---------------------------------||
|-3-3-3-0-0-0-2-2-2-5-5-5-2-2-5-5-||
|-3-3-3-0-0-0-2-2-2-5-5-5-2-2-5-5-||
|-3-3-3-0-0-0-2-2-2-5-5-5-2-2-5-5-||


 Pre-Verse
  E5 B5 F5 C5D5G5  F5  E5 B5D5F5D5G5  F5C5  F5
  E. E. E. E S S S E   E. E S S S S S E S S E
|--------------------|------------------------|
|--------------------|------------------------|
|----4-----5---------|----4-------------5-5---|
|-2--4--3--5-0-5-5-3-|-2--4-0-3-0-5-5-3-5-5-3-|
|-2--2--3--3-0-5-5-3-|-2--2-0-3-0-5-5-3-3-3-3-|
|-2-----3----0-5-5-3-|-2----0-3-0-5-5-3-----3-|


  E5 B5 F5 C5D5G5  F5  E5 B5D5E5D5    G5F5
  E. E. E. E S S S E   E. E S S e e S E E
|--------------------|--------------------|
|--------------------|--------------------|
|----4-----5---------|----4---------------|
|-2--4--3--5-0-5-5-3-|-2--4-0-2-0-0-0-5-3-|
|-2--2--3--3-0-5-5-3-|-2--2-0-2-0-0-0-5-3-|
|-2-----3----0-5-5-3-|-2----0-2-0-0-0-5-3-|


  E5 B5 F5 C5D5G5G5F5  E5 B5D5 F5  G5  F5C5  F5
  E. E. E. E S S S E   E. E S  S S S S E S S E
|--------------------|-------------------------|
|--------------------|-------------------------|
|----4-----5---------|----4--------------5-5---|
|-2--4--3--5-0-5-5-3-|-2--4-0--3-0-5-5-3-5-5-3-|
|-2--2--3--3-0-5-5-3-|-2--2-0--3-0-5-5-3-3-3-3-|
|-2-----3----0-5-5-3-|-2----0--3-0-5-5-3-----3-|
|
| Gtr II
| E. E. E. E S Q       E. E E.     H
|--------------------|-------------------------|
|--------------------|-------------------------|
|----4-----5---------|----4--------------------|
|-2-----3------------|-2-----------------------|
|--------------------|-------------------------|
|--------------------|-------------------------|


  E5 B5 F5 C5D5G5  F5  E5 B5D5 E5D5      G5F5
  E. E. E. E S S S E   E. E S  S e   e S E E
|--------------------|-----------------------||
|--------------------|-----------------------||
|----4-----5---------|----4------------------||
|-2--4--3--5-0-5-5-3-|-2--4-0--2-0---0-0-5-3-||
|-2--2--3--3-0-5-5-3-|-2--2-0--2-0---0-0-5-3-||
|-2-----3----0-5-5-3-|-2----0--2-0---0-0-5-3-||
|
| E. E. E. E S Q       E. E E.     H
|--------------------|-----------------------||
|--------------------|-----------------------||
|----4-----5---------|----4------------------||
|-2-----3------------|-2---------------------||
|--------------------|-----------------------||
|--------------------|-----------------------||


 Verse 1 and 2
  $
  N.C.
  Gtr I
  E. E. E. E S S S E   E. E S S S S S E S S E
|--------------------|------------------------|
|--------------------|------------------------|
|--------------------|------------------------|
|--------------------|------------------------|
|----2-----3---------|----2-------------3-3---|
|-2-----3----0-5-5-3-|-2----0-3-0-5-5-3-----3-|


  E. E. E. E S S S E   E. E S S e e S E   +E
|--------------------|------------------------|
|--------------------|------------------------|
|--------------------|----------------4b6-(4)-|
|--------------------|------------------------|
|----2-----3---------|----2-------------------|
|-2-----3----0-5-5-3-|-2----0-2-0-0-0---------|


  E. E. E. E S S S E   E. E S S S S S E S S E
|--------------------|------------------------|
|--------------------|------------------------|
|--------------------|------------------------|
|--------------------|------------------------|
|----2-----3---------|----2-------------3-3---|
|-2-----3----0-5-5-3-|-2----0-3-0-5-5-3-----3-|


                            D5E5D5    G5F5
                            PM----|
  E. E. E. E S S S E   E. E S S e e S E E
|--------------------|--------------------||
|--------------------|--------------------||
|--------------------|--------------------||
|--------------------|----------------5-3-||
|----2-----3---------|----2-0-2-0-0-0-5-3-||
|-2-----3----0-5-5-3-|-2----0-2-0-0-0-5-3-||


   Chorus
    E5E5   D5 N.C.          E5E5   D5 N.C.
    E  E E E. S S E S S S   E  E E E. E E S S S
||------------------------|---------------------|
||o-----------------------|---------------------|
||----/9-9----------------|---/9-9--------------|
||--2-/9-9-0--------------|-2-/9-9-0------------|
||o-2-/7-7-0--x-x-x-x-x-x-|-2-/7-7-0--x-x-x-x-x-|
||--2------0--x-x-x-x-x-x-|-2------0--x-x-x-x-x-|


                         1.
  E5E5   D5 N.C.          D5/G         A5
  E  E E E. S S E S S S   E. E. Q  E E E
|-----------------------|-----------------||
|-----------------------|----------------o||
|---/9-9----------------|-----------------||
|-2-/9-9-0--------------|-7--7--7--7-7----||
|-2-/7-7-0--x-x-x-x-x-x-|-5--5--5--5-5-7-o||
|-2------0--x-x-x-x-x-x-|-5--5--5--5-5-7--||


  2.
                                         To Coda
  D5/G             C5              C
  E. E. Q  E E E   E. E. Q  E Q    E. E. Q  E Q
|----------------|---------------|---------------||
|----------------|---------------|---------------||
|----------------|-5--5--5--5-5--|-5--5--5--5-5--||
|-7--7--7--7-7-7-|-5--5--5--5-5--|-4--4--4--4-4--||
|-5--5--5--5-5-5-|-3--3--3--3-3--|-3--3--3--3-3--||
|-5--5--5--5-5-5-|---------------|---------------||


 Break
  N.C.                              F5    D5    E5    G5    E5  G5
  S S S S S S S S S S S S S S S S   S S S S S S S S S S S S S S S S
|---------------------------------|---------------------------------|
|---------------------------------|---------------------------------|
|---------------------------------|---------------------------------|
|---------------------------------|-3-3-3-0-0-0-2-2-2-5-5-5-2-2-5-5-|
|---------------------------------|-3-3-3-0-0-0-2-2-2-5-5-5-2-2-5-5-|
|-3-3-3-0-0-0-2-2-2-5-5-5-5-5-5-5-|-3-3-3-0-0-0-2-2-2-5-5-5-2-2-5-5-|


                                                        D.S. al Coda
  F5    D5    E5    G5              F5    D5    E5    G5    E5  G5
  S S S S S S S S S S S S S S S S   S S S S S S S S S S S S S S S S
|---------------------------------|-----------------------------------||
|---------------------------------|-----------------------------------||
|---------------------------------|-----------------------------------||
|-3-3-3-0-0-0-2-2-2-5-5-5-5-5-5-5-|-3-3-3-0-0-0-2-2-2-5-5-5-2-2-5-5---||
|-3-3-3-0-0-0-2-2-2-5-5-5-5-5-5-5-|-3-3-3-0-0-0-2-2-2-5-5-5-2-2-5-5---||
|-3-3-3-0-0-0-2-2-2-5-5-5-5-5-5-5-|-3-3-3-0-0-0-2-2-2-5-5-5-2-2-5-5---||


  &
  C5              C               N.C.
                                   ~~~~~~~~~~~~~~~
  E. E. Q  E Q    E. E. Q  E Q     W          +W
|---------------|---------------|-----------|--------||
|---------------|---------------|-----------|--------||
|-5--5--5--5-5--|-5--5--5--5-5--|-----------|--------||
|-5--5--5--5-5--|-4--4--4--4-4--|-----------|--------||
|-3--3--3--3-3--|-3--3--3--3-3--|-/7--------|-(7)----||
|---------------|---------------|-----------|--------||


   Interlude
    N.C.
      PM------|   PM------|   PM--|     PM------|   PM------|   PM--|
    S S S S S S S S S S S S S S S S   S S S S S S S S S S S S S S S S
||----------------------------------|-----------------------------------||
||o---------------------------------|----------------------------------o||
||----------------------------------|-----------------------------------||
||----------------------------------|-----------------------------------||
||o-2-----------2-----------5-------|-2-----------2-----------5--------o||
||----3-2-0-2-3---3-2-0-2-3---3-0-3-|---3-2-0-2-3---3-2-0-2-3---3-0-3---||


    N.C.
    S S S S S S S S S S S S S S S S   S S S S S S S S S S S S S S S S
||----------------------------------|-----------------------------------||
||o---------------------------------|----------------------------------o||
||----------------------------------|-----------------------------------||
||----------------------------------|-----------------------------------||
||o-2-----------2-----------5-------|-2-----------2-----------5--------o||
||----3-2-0-2-3---3-2-0-2-3---3-0-3-|---3-2-0-2-3---3-2-0-2-3---3-0-3---||


  E5 B5 F5 B5 F5        E5 B5 F5 B5 F5
  E. E. E. E. S S S S   E. E. E. E. S S S S
|---------------------|---------------------|
|---------------------|---------------------|
|---------------------|---------------------|
|----4-----4----------|----4-----4----------|
|-2--2--3--2--3-3-3-3-|-2--2--3--2--3-3-3-3-|
|-2-----3-----3-3-3-3-|-2-----3-----3-3-3-3-|


  E5 B5 F5 B5 F5        E5 B5 F5
  E. E. E. E. S S S S   E. E. E H
|---------------------|--------------|
|---------------------|--------------|
|---------------------|--------------|
|----4-----4----------|----4---------|
|-2--2--3--2--3-3-3-3-|-2--2--3------|
|-2-----3-----3-3-3-3-|-2-----3------|


   Out-Chorus
    E5E5   D5 N.C.          E5E5 E5   N.C.
    E  E E E. S S E S S S   E  E E E. E E S S S
||------------------------|---------------------|
||o-----------------------|---------------------|
||----/9-9----------------|---/9-9--------------|
||--2-/9-9-0--------------|-2-/9-9-0------------|
||o-2-/7-7-0--x-x-x-x-x-x-|-2-/7-7-0--x-x-x-x-x-|
||--2------0--x-x-x-x-x-x-|-2------0--x-x-x-x-x-|


  E5E5 E5D5 N.C.          D5/G         A5
  E  E E E. S S E S S S   E. E. Q  E E E  4x
|-----------------------|-----------------||
|-----------------------|----------------o||
|---/9-9----------------|-----------------||
|-2-/9-9-0--------------|-7--7--7--7-7----||
|-2-/7-7-0--x-x-x-x-x-x-|-5--5--5--5-5-7-o||
|-2------0--x-x-x-x-x-x-|-5--5--5--5-5-7--||


  E5
  >
  W          +W           +W           +W
|----------|------------|------------|--------*|
|----------|------------|------------|--------*|
|----------|------------|------------|--------*|
|-2--------|-(2)--------|-(2)--------|-(2)----*|
|-2--------|-(2)--------|-(2)--------|-(2)----*|
|-2--------|-(2)--------|-(2)--------|-(2)----*|




--------------------------------------------------------------------------------


Duration Legend
---------------
W - whole; H - half; Q - quarter; E - 8th; S - 16th; T - 32nd; X - 64th; a - acciaccatura
+ - note tied to previous; . - note dotted; .. - note double dotted
Uncapitalized letters represent notes that are staccato (1/2 duration)
Irregular groupings are notated above the duration line
Duration letters will always appear directly above the note/fret number it represents the
duration for.  Duration letters with no fret number below them represent rests.  Multi-
bar rests are notated in the form Wxn, where n is the number of bars to rest for.  Low
melody durations appear below the staff

Tablature Legend
----------------
 h   - hammer-on
 p   - pull-off
 b   - bend
 pb  - pre-bend
 r   - bend release (if no number after the r, then release immediately)
 /\  - slide into or out of (from/to "nowhere")
 s   - legato slide
 S   - shift slide
 - natural harmonic
[n]  - artificial harmonic
n(n) - tapped harmonic
 ~   - vibrato
 tr  - trill
 T   - tap
 TP  - trem. picking
 PM  - palm muting
\n/  - tremolo bar dip; n = amount to dip
 \n  - tremolo bar down
 n/  - tremolo bar up
/n\  - tremolo bar inverted dip
 =   - hold bend; also acts as connecting device for hammers/pulls
 <> - volume swell (louder/softer)
 x   - on rhythm slash represents muted slash
 o   - on rhythm slash represents single note slash

Misc Legend
-----------
 |  - bar
||  - double bar
||o - repeat start
o|| - repeat end
*|  - double bar (ending)
 :  - bar (freetime)
 $  - Segno
 &  - Coda
Tempo markers -  = BPM(8/16=s8/s16), where s8 = swing 8ths, s16 = swing 16ths


comments
We did not receive enough feedback on this tab! Please rate:
print report bad tab
1 2 3 4 5
I want to post or [tab]
guest
You may want to rate the tab now too:
select rating
Please do not post tabs as comments. Select "correction" instead!