Oops, an error
Loading. Please wait.

Breathe Bass Tab

version 1
version 1

Whole song

Interactive

2,638 views 3 this week
1 commentread comment
1 2 3 4 5
excellent!
x 7
add to favorites
launch autoscroll
font size
0
reset
guitar tuner
Autoscroll
slow
fast
+/-
esc
set tempo
stop
Help us to improve Ultimate-Guitar.com Take our survey!
×
Contributor
Tuning:Bb,Db,Ab,Db,Gb

Intro
Gb------------------------------------------------|
Db----------7------7-----9-----------7------------|  x2
Ab-0-0--7h9----7h9-----7----0-0--7h9---5-----3----|
Db----------------------------------------3----5--|
Bb------------------------------------------------|

Verse
Gb------------------------------------------------|
Db----------7------7-----9-----------7------------|  x4
Ab-0-0--7h9----7h9-----7----0-0--7h9---5-----3----|
Db----------------------------------------3----5--|
Bb------------------------------------------------|

Gb----------------|
Db----------------|
Ab-7-7-7-7-7-7-7--|
Db----------------|
Bb----------------|

Gb--------------------------------------------------------------------|
Db--------------------------------------------------------------------|
Ab--------------------------------------------------------------------|
Db3-3-3-3-3-3-3-3-3-3-3-0-0-0-0-0-0-0-0-0-0-0-------------------------|
Bb--------------------------------------------1-1-1--1-1-1-1--1-1-1-1-|

Gb----------------------------------------------|
Db----------------------------------------------|
Ab----------------------------------------------|
Db-3-3-3--3-3-3-3--3-2--3-3-3--3-3-3-3--3-3-3-3-|
Bb----------------------------------------------|

Gb------------------------------------------|
Db------------------------------------------|
Ab--------------------------5-5-5-5-5-5-5-7-|
Db-2-2-2--2-2-2-2--2-2-2-2------------------|
Bb------------------------------------------|


Chorus  (0:57)
Gb-------------------------------------------------|
Db-------------------------------------------------|
Ab----------------------------------3---3/5\3------|
Db-7-7--5-5--0-0---0--0-0-0--0--3-3---3-------3-3--|
Bb-------------------------------------------------|

Gb-----------------------------------------------------|
Db-----------------------------------------------------|
Ab------5-----5h7-5------------------------------------|
Db-5--5---5-5-------5-3--7-7--5-5--0-0---0--0-0-0-0-0--|
Bb-----------------------------------------------------|

Gb----------------------------------------|
Db----------------------------------------|
Ab------3---3/5\3-----------2---2h3p2-----|
Db-3--3---3-------3-3--2--2---2-------2~--|
Bb----------------------------------------|

(1:16)
Gb-----------------------------------------------|
Db----------7------7-----9-----------7-----------|  x2
Ab-0-0--7h9----7h9-----7----0-0--7h9---5----3----|
Db----------------------------------------3---5--|
Bb-----------------------------------------------|

Verse  (1:27)
Gb-----------------------------------------------|
Db----------7------7-----9-----------7-----------|  x4
Ab-0-0--7h9----7h9-----7----0-0--7h9---5----3----|
Db----------------------------------------3---5--|
Bb-----------------------------------------------|

Gb----------------|
Db----------------|
Ab-7-7-7-7-7-7-7--|
Db----------------|
Bb----------------|

(1:54)
Gb--------------------------------------------------------------------|
Db--------------------------------------------------------------------|
Ab--------------------------------------------------------------------|
Db3-3-3-3-3-3-3-3-3-3-3-0-0-0-0-0-0-0-0-0-0-0-------------------------|
Bb--------------------------------------------1-1-1--1-1-1-1--1-1-1-1-|

Gb----------------------------------------------|
Db----------------------------------------------|
Ab----------------------------------------------|
Db-3-3-3--3-3-3-3--3-2--3-3-3--3-3-3-3--3-3-3-3-|
Bb----------------------------------------------|

Gb------------------------------------------|
Db------------------------------------------|
Ab--------------------------5-5-5-5-5-5-5-7-|
Db-2-2-2--2-2-2-2--2-2-2-2------------------|
Bb------------------------------------------|

Chorus  (2:12)
Gb-------------------------------------------------|
Db-------------------------------------------------|
Ab----------------------------------3---3/5\3------|
Db-7-7--5-5--0-0---0--0-0-0--0--3-3---3-------3-3--|
Bb-------------------------------------------------|

Gb-----------------------------------------------------|
Db-----------------------------------------------------|
Ab------5-----5h7-5------------------------------------|
Db-5--5---5-5-------5-3--7-7--5-5--0-0---0--0-0-0-0-0--|
Bb-----------------------------------------------------|

Gb----------------------------------------|
Db----------------------------------------|
Ab------3---3/5\3-----------2---2h3p2-----|
Db-3--3---3-------3-3--2--2---2-------2~--|
Bb----------------------------------------|

Gb-------------------------------------------------|
Db-------------------------------------------------|
Ab----------------------------------3---3/5\3------|
Db-7-7--5-5--0-0---0--0-0-0--0--3-3---3-------3-3--|
Bb-------------------------------------------------|

Gb-----------------------------------------------------|
Db-----------------------------------------------------|
Ab------5-----5h7-5------------------------------------|
Db-5--5---5-5-------5-3--7-7--5-5--0-0---0--0-0-0-0-0--|
Bb-----------------------------------------------------|

Gb--------------------------------------|
Db--------------------------------------|
Ab------3---3/5\3-----------2---2-------|
Db-3--3---3-------3-3--2--2---2---2-2~--|
Bb--------------------------------------|

(3:02)
Gb-------------------------------|
Db-------------------------------|
Ab----------0--------------------|
Db-5-5-5-5--------5-5--7-7--5-5--|
Bb-------------------------------|

Chorus  (3:20)
Gb-------------------------------------------------|
Db-------------------------------------------------|
Ab----------------------------------3---3/5\3------|
Db-7-7--5-5--0-0---0--0-0-0--0--3-3---3-------3-3--|
Bb-------------------------------------------------|

Gb---------------------------------------------------|
Db---------------------------------------------------|
Ab------5-----5h7-5----------------------------------|
Db-5--5---5-5-------5-3--7-7--5-5--0-0--0--0-0-0--0--|
Bb---------------------------------------------------|

Gb---------------------------------------|
Db---------------------------------------|
Ab------3---3/5\3-----------2---2--------|
Db-3--3---3-------3-3--2--2---2---2-2-2--|
Bb---------------------------------------|

Gb-------------------------------------------------|
Db-------------------------------------------------|
Ab----------------------------------3---3/5\3------|
Db-7-7--5-5--0-0---0--0-0-0--0--3-3---3-------3-3--|
Bb-------------------------------------------------|

Gb---------------------------------------------------|
Db---------------------------------------------------|
Ab------5-----5h7-5----------------------------------|
Db-5--5---5-5-------5-3--7-7--5-5--0-0--0--0-0-0--0--|
Bb---------------------------------------------------|

Gb---------------------------------------|
Db---------------------------------------|
Ab------3---3/5\3-----------2---2--------|
Db-3--3---3-------3-3--2--2---2---2-2-2--|
Bb---------------------------------------|

Outro  (3:56)
Gb---------------------------------------|
Db---------------------------------------|
Ab------3---3/5\3-----------2---2--------|
Db-3--3---3-------3-3--2--2---2---2-2-2--|
Bb---------------------------------------|

Gb------------------------------------------|
Db------------------------------------------|
Ab------3---3-------------2---2-------------|
Db-3--3---3---3-3-3--2--2---2---2-2-2--7~~--|
Bb------------------------------------------|

Thanks, please rate it after you learn it.
comments
print report bad tab
1 comment total.
0 reply
joshhelton27 15 wrote on May 22 2012, 08:07 pm

perfect!!!

I want to post or [tab]
guest
You may want to rate the tab now too:
select rating
Please do not post tabs as comments. Select "correction" instead!