Oops, an error
Loading. Please wait.

Breathe Tab

version 1
version 1

Whole song

Interactive

6,763 views 9 this week
no commentswrite comment
1 2 3 4 5
accurate
x 7
add to favorites
launch autoscroll
font size
0
reset
how to read this tab
guitar tuner
Tab Pro tools
  • play this tab
  • loop segment
  • change instrument
  • show fretboard
  • metronome
Autoscroll
slow
fast
+/-
esc
set tempo
stop
Song: "Breathe"
Artist: Disturbed
Album: Believe
Transcribed By: Bryan Bramlett (bryanmb87@aol.com)

INTRO:
|---------------------------------------8-7---------------------------|
|---------------------------------------------------------------------|
|-----------------------------9-10-9-10-----------------------7---5---|
|-9h10-9-XX-9h10-7-XX-9h10-9----------------9h10-9-XX-9h10-7--7-3-5-5-|
|-7----7-XX-7----7-XX-7----7----------------7----7-XX-7----7--5-3-3-5-|
|-7----7-XX-7----7-XX-7----7----------------7----7-XX-7----7----3---5-|
pm                            . .. . ..

|---------------------------------------8-7----------------------------|
|----------------------------------------------------------------------|
|-----------------------------9-10-9-10-----------------------7---5-10-|
|-9h10-9-XX-9h10-7-XX-9h10-9----------------9h10-9-XX-9h10-7--7-3-5-10-|
|-7----7-XX-7----7-XX-7----7----------------7----7-XX-7----7--5-3-3--8-|
|-7----7-XX-7----7-XX-7----7----------------7----7-XX-7----7----3------|
pm                            . .. . ..

VERSE:
|-------------------------------------------------------------|
|-------------------------------------------------------------|
|-----------------------------------------------------7---5---|
|-9h10-9-XX-9h10-7-XX-9h10-9-----9--9h10-9-XX-9h10-7--7-3-5-5-|
|-7----7-XX-7----7-XX-7----7---7----7----7-XX-7----7--5-3-3-5-|
|-7----7-XX-7----7-XX-7----7--------7----7-XX-7----7----3---5-|

|---------------------------------------8-7----------------------------|
|----------------------------------------------------------------------|
|-----------------------------9-10-9-10-----------------------7---5-10-|
|-9h10-9-XX-9h10-7-XX-9h10-9----------------9h10-9-XX-9h10-7--7-3-5-10-|
|-7----7-XX-7----7-XX-7----7----------------7----7-XX-7----7--5-3-3--8-|
|-7----7-XX-7----7-XX-7----7----------------7----7-XX-7----7----3------|
pm                            . .. . ..

BRIDGE:
|-------------------------------------------------------------|
|-------------------------------------------------------------|
|-9-9-9-9-9-9-9-9---------------------------------------------|
|-9-9-9-9-9-9-9-9-------------------------------5555-5555-555-|
|-7-7-7-7-7-7-7-7-3333-3333-333--0000-0000-000--3333-3333-333-|
|-----------------3333-3333-333--0000-0000-000----------------|

|--------------------------------------------------------------|
|--------------------------------------------------------------|
|-5555-5555-5----------------------------------7-7-7-7-7-7-7-7-|
|-3333-3333-3----------------------------------X-X-X-X-X-X-X-X-|
|-------------3--3333-3333-333--2222-2222-222--5-5-5-5-5-5-5-5-|
|-------------3--3333-3333-333--2222-2222-222--0-0-0-0-0-0-0-0-|

|---------------------|
|---------------------|
|-9/10-9/10-9/10-9/10-|
|-X-X--X-X--X-X--X-X--|
|-7/8--7/8--7/8--7/8--|
|---------------------|

CHORUS:
|-------------------/10----8----7----------------------------------|
|------------------------------------------------------------------|
|---------------------------------10101010101010101010101010101010-|
|-7-7-XX-5-5-XX-0-0-----10----9----X-X-X-X-X-X-X-X-X-X-X-X-X-X-X-X-|
|-7-7-XX-5-5-XX-0-0----------------8-8-8-8-8-8-8-8-8-8-8-8-8-8-8-8-|
|-7-7-XX-5-5-XX-0-0------------------------------------------------|

|---------------------------------------------8-7-|
|-------------------------------------------------|
|-9999999999999999-------------------7------------|
|-XXXXXXXXXXXXXXXX-7-7-XX-5-5-XX-0-0---10--10-----|
|-7777777777777777-7-7-XX-5-5-XX-0-0--------------|
|------------------7-7-XX-5-5-XX-0-0--------------|

|------------------------------------------------|
|------------------------------------------------|
|-10101010101010101010101010101010-9999999999999-|
|--X-X-X-X-X-X-X-X-X-X-X-X-X-X-X-X-XXXXXXXXXXXXX-|
|--8-8-8-8-8-8-8-8-8-8-8-8-8-8-8-8-7777777777777-|
|------------------------------------------------|

INTERLUDE:
|--------------------------------------------------------|
|--------------------------------------------------------|
|--------------------------------------------------------|
|-5-7-0-7-10-0-5-7-0-0-0-0-12-12-0-10-10-0-9-9-0-10-0-10-|
|-5-7-0-7-10-0-5-7-0-0-0-0-12-12-0-10-10-0-9-9-0-10-0-10-|
|--------------------------------------------------------|
pm    .      .     . . . .       .       .     .    .

|--------------------------------------------------|
|--------------------------------------------------|
|--------------------------------------------------|
|-5-7-0-7-10-0-5-7-0-0-0-0-5-7-0-5-7-0-5-7---------|
|-5-7-0-7-10-0-5-7-0-0-0-0-5-7-0-5-7-0-5-7-5-5-5-5-|
|------------------------------------------5-5-5-5-|
pm    .      .     . . . .     .     .     . . . .

|--------------------------------------------------------|
|--------------------------------------------------------|
|--------------------------------------------------------|
|-5-7-0-7-10-0-5-7-0-0-0-0-12-12-0-10-10-0-9-9-0-10-0-10-|
|-5-7-0-7-10-0-5-7-0-0-0-0-12-12-0-10-10-0-9-9-0-10-0-10-|
|--------------------------------------------------------|
pm    .      .     . . . .       .       .     .    .

|--------------------------------------------------|
|--------------------------------------------------|
|--------------------------------------------------|
|-5-7-0-7-10-0-5-7-0-0-0-0-10-10-XX-12-12-XX-10-10-|
|-5-7-0-7-10-0-5-7-0-0-0-0-10-10-XX-12-12-XX-10-10-|
|--------------------------10-10-XX-12-12-XX-10-10-|
pm    .      .     . . . .

OUTRO:
|---------------------------------------------------|
|---------------------------------------------------|
|-10101010101010101010101010101010-9999999999999999-|
|--X-X-X-X-X-X-X-X-X-X-X-X-X-X-X-X-XXXXXXXXXXXXXXXX-|
|--8-8-8-8-8-8-8-8-8-8-8-8-8-8-8-8-7777777777777777-|
|---------------------------------------------------|

OUTRO 2:
|---|
|---|
|---|
|-7-|
|-7-|
|-7-|============Author/Artist: Disturbed
Title: Breathe
Album: Believe
Transcribed by: Erich Wolf
Email: ejw_xxxgodsmackxxx@yahoo.com

TUNNING: Db Ab Db Gb Bb Eb

I BELIEVE THIS SONG IS ABOUT 95% CORRECT OR BETTER.
IT WILL TAKE A LITTLE GETTING USE TOO.
ENJOY!

INTRO:
------------------------------8-7---------------------------------------------
------------------------------------------------------------------------------
-------------------7-7-9-10--------------------------7-----5------------------
--9h10-9h10-9h10--------------------9h10-9h10-9h10---7--3--5--5----x2---------
--7----7----7-----------------------7----7----7------5--3--3--5---------------
--7----7----7-----------------------7----7----7---------3-----5---------------
                   P.M.----                                                   

VERSE:
------------------------------------------------------------------------------
------------------------------------------------------------------------------
-------------------------------------------7-----5----------------------------
--9h10-9h10-9h10---9------9h10-9h10-9h10---7--3--5--5----9h10-9h10-9h10-------
--7----7----7--------7----7----7----7------5--3--3--5----7----7----7----------
--7----7----7----------7--7----7----7---------3-----5----7----7----7----------
                                                                              
VERSE:CONTINUED
-------------8-7--------------------------------------------------------------
------------------------------------------------------------------------------
--7-7-9-10---------7-----5----------------------------------------------------
-------------------7--3--5--5-------------------------------------------------
-------------------5--3--3--5-------------------------------------------------
----------------------3-----5-------------------------------------------------
  P.M.----                                                                    

POST VERSE: (PICKING IS NOT EXACT BUT IT IS EASY TO FIGURE OUT)
-------------------------------------|----------------------------------------
-------------------------------------|----------------------------------------
------------------------5555---------|----------------7777777---9-10-9-10-----
--22222---3333---0000---5555---2222--|--3333---0000---5555555---7-8--7-8------
--22222---3333---0000---3333---2222--|--3333---0000---5555555---7-8--7-8------
--22222---3333---0000----------2222--|--3333---0000---------------------------
  (THIS PART COMES RIGHT AFTER THE VERSE)*LISTEN CAREFULLY FOR TIMING*        

CHORUS:
------------------------10-let-ring-for-a-second------------------------------
------------------------------------------------------------------------------
------------------------------------------------------------------------------
--7-7--x--5-5--x--0-0--------0-0-0-0---2/3-3--5-5--3--2-2-x-2-2-2-------------
--7-7--x--5-5--x--0-0--------0-0-0-0---2/3-3--5-5--3--2-2-x-2-2-2-------------
--7-7--x--5-5--x--0-0--------0-0-0-0---2/3-3--5-5--3--2-2-x-2-2-2-------------
                                                                              

CHORUS:CONTINUED
------------------------------------------------------------------------------
------------------------------------------------------------------------------
------------------------7-let-ring-for-a-second-------------------------------
--7-7--x--5-5--x--0-0--------0-0-0-0---2/3-3--5-5--3--2-2-x-2-2-2-------------
--7-7--x--5-5--x--0-0--------0-0-0-0---2/3-3--5-5--3--2-2-x-2-2-2-------------
--7-7--x--5-5--x--0-0--------0-0-0-0---2/3-3--5-5--3--2-2-x-2-2-2-------------
                                                                              

INTERLUDE: (PICKING NOT EXACT)
------------------------------------|---------------|-------------------------
------------------------------------|---------------|-------------------------
------------------------------------|---------------|--5-----5-----5----------
--7-7-7-7-7-7---10-10-10-10-10-10---|--10--9--10-9--|--5--x--5--x--5--5-------
--7-7-7-7-7-7---7--7--7--7--7--7----|--7---7--7--7--|--3--x--3--x--3--5-------
--7-7-7-7-7-7---7--7--7--7--7--7----|--7---7--7--7--|-----x-----x-----5-------
  (PLAY AROUND WITH THIS PART, IT SOUNDS LIKE SOMETHING OUT OF A TOOL SONG)   

ENDING: (PICKING NOT EXACT)
------------------------------------------------------------------------------
------------------------------------------------------------------------------
--7-7-7-7---5-5-5-5-------7-7-7-7---------------------------------------------
--5-5-5-5---3-3-3-3--x2---5-5-5-5----7----------------------------------------
--5-5-5-5---3-3-3-3-------5-5-5-5----7----------------------------------------
--5-5-5-5---3-3-3-3-------5-5-5-5----7----------------------------------------
  (PLAY AROUND WITH ENDING ALSO)   
DISTURBED IS A GREAT BAND.
THANKS FOR THE SONG DISTURBED.
comments
print report bad tab
I want to post or [tab]
guest
You may want to rate the tab now too:
select rating
Please do not post tabs as comments. Select "correction" instead!