Oops, an error
Loading. Please wait.

Darkness Tab

version 1
version 1

Whole song

Interactive

62,265 views 33 this week
9 commentsread comments
1 2 3 4 5
x 23
add to favorites
launch autoscroll
font size
0
reset
how to read this tab
guitar tuner
×
Best way to learn
"Darkness"
Autoscroll
slow
fast
+/-
esc
set tempo
stop
Author
Tabbers playing skills
advanced ++
Tuning: Eb Ab Db Gb Bb Eb

[Intro]
(Fig. 1a)
e|-----19--17------14--14-----15-------------------|
B|-------------------------------------------------|
G|-------------------------------------------------|
D|-------------------------------------------------|
A|-------------------------------------------------|
E|-------------------------------------------------|

(Fig. 1)
e|-------------------------------------------------|
B|-------------------------------------------------|
G|----------------------------------------0-----0--|
D|-------4-----4--0-----0--------4-----4-----------|
A|----2-----2--------2--------2-----2--------2-----|
E|-0-----------------------3-----------------------|

(Fig. 1a)(cont)
e|-----19--17----14--14------15--------------------|
B|---------------------------------15--------------|
G|-------------------------------------------------|
D|-------------------------------------------------|
A|-------------------------------------------------|
E|-------------------------------------------------|

(Fig. 1) (cont)
e|-------------------------------------------------|
B|-------------------------------------------------|
G|----------------------------------------0--------|
D|-------4-----4--0-----0--------4-----4--------0--|
A|----2-----2--------2--------2-----2--------2-----|
E|-0-----------------------3-----------------------|

[Verse] (x2)
(Fig. 1)
e|-------------------------------------------------|
B|-------------------------------------------------|
G|----------------------------------------0-----0--|
D|-------4-----4--0-----0--------4-----4-----------|
A|----2-----2--------2--------2-----2--------2-----|
E|-0-----------------------3-----------------------|

(Fig. 1a)
e|-----19--17------14--14-----15-------------------|
B|-------------------------------------------------|
G|-------------------------------------------------|
D|-------------------------------------------------|
A|-------------------------------------------------|
E|-------------------------------------------------|

[Chorus]
(gtr. 1)
e|---------0----------------0--------------0-----------------0-------|
B|-----------3----------------3--------------3-----------------3-----|
G|-------0-----0----------------0--------0-----0-----------------0---|
D|---2-2-----------------------------2-2-----------------------------|
A|-3-------------2----0------------3-------------2----0--------------|
E|----------------------0-------------------------------0------------|

(gtr. 2)
e|-------------------------------------------------------------------|
B|---------0-------------------------------0-------------------------|
G|-------0-----2-0----2h4-------0--------0-----2-0----2--------------|
D|---2/5-----------------------------2/5----------------2------------|
A|-3-------------------------------3---------------------------------|
E|-------------------------------------------------------------------|

(gtr. 1)
e|---------0----------------0--------------0----------2-2---2-2--2-2-|
B|-----------3----------------3--------------3---3----3-3---3-3--3-3-|
G|-------0-----0----------------0--------0-----0-0----2-2---2-2--2-2-|
D|---2-2-----------------------------2-2---------2----0-0-0---0--0-0-|
A|-3-------------2----0------------3-------------3-------------------|
E|----------------------0--------------------------------------------|

(gtr. 2)
e|-------------------------------------------------------------------|
B|---------0---------------------------------------------------------|
G|-------0-----2-0----2h4-------0--0---------------------------------|
D|---2/5-------------------------------------------------------------|
A|-3-----------------------------------------------------------------|
E|-------------------------------------------------------------------|

[Bridge]
(x4)
(gtr. 1)
e|-0----0--0-0--0----0-0-0-0----0-0-0--0-----0-0-0--0---0-0--|
B|-0----0--0-0--0----0-0-0-0----0-0-0--0-----0-0-0--0---0-0--|
G|-0----0--2-2--2----2-2-2-2----2-2-2--2-----2-2-2--2---2-2--|
D|-2----2--3-3--3----3-3-3-3----3-3-3--3-----3-3-3--3---3-3--|
A|-2----2--2-2--2----2-2-2-2----2-2-2--2-----2-2-2--2---2-2--|
E|-0----0----------------------------------------------------|

(gtr. 2)
e|-----------------------------------------------------------|
B|-----------------------------------------------------------|
G|-9~~~~~~~~~~~~~~~~~~~~~~~~~~~~-----------------------------|
D|-----------------------------------------------------------|
A|-----------------------------------------------------------|
E|-----------------------------------------------------------|

[Interlude]
(Fig. 1)
e|-------------------------------------------------|
B|-------------------------------------------------|
G|----------------------------------------0-----0--|
D|-------4-----4--0-----0--------4-----4-----------|
A|----2-----2--------2--------2-----2--------2-----|
E|-0-----------------------3-----------------------|

[Outro] 
(Fig. 1)
e|-------------------------------------------------|
B|-------------------------------------------------|
G|----------------------------------------0-----0--|
D|-------4-----4--0-----0--------4-----4-----------|
A|----2-----2--------2--------2-----2--------2-----|
E|-0-----------------------3-----------------------|

(Fig. 1a)
e|-----19--17------14--14-----15-------------------|
B|-------------------------------------------------|
G|-------------------------------------------------|
D|-------------------------------------------------|
A|-------------------------------------------------|
E|-------------------------------------------------|


************************************

| h  Hammer-on
| /  Slide up
| ~  Vibrato

************************************
Suggest correction
comments
print report bad tab
9 comments total. Showing first comments.
+2 reply
nasty_santa409 100 Mar 23, 2004 07:00 PM

thank you!

+2 reply
antichrist_punk 10 Jul 19, 2005 08:00 PM

thanx for the tab man, even though its from the book, bad ass. thanx

+2 reply
Murk 10 Feb 25, 2006 10:52 AM

HOW IS THIS INTERMEDIATE??????

guest
You may want to rate the tab now too:
select rating
Wanna post a correction for this tab? Suggest correction