Oops, an error
Loading. Please wait.

Dehumanized Tab

version 2
version 2

Whole song

Interactive

475 views 1 this week
no commentswrite comment
1 2 3 4 5
please rate
add to favorites
launch autoscroll
font size
0
reset
how to read this tab
guitar tuner
Autoscroll
slow
fast
+/-
esc
set tempo
stop
Help us to improve Ultimate-Guitar.com Take our survey!
×
Author
DEHUMANIZED (Live)
As recorded by Disturbed
(From the 2003 Album NO ALBUM YET)


Transcribed by jolteon1114@hotmail.com

 
This is the new Disturbed song Dehumanized.Took me a while to make it and it sounds
just like the song. Liten to it for timing. Enjoy!
 

Gtr I (C# G# C# F# A# D#) - 'Dan'


  Q=90
 4/4
  Gtr I
  PM----|   PM----------|   PM------------|   PM----------|   PM--|
|---------------------------------|----------------------------------|
|---------------------------------|----------------------------------|
|---------------------------------|----------------------------------|
|---------0---------------8-------|---------2---------------7--------|
|---------0---------------8-------|---------2---------------7--------|
|-0-0-0-0-0-0-0-8-8-8-8-8-8-8-8-8-|-2-2-2-2-2-2-2-7-7-7-7-7-7-7-7-7--|


    PM----|   PM----------|   PM------------|   PM----------|   PM--|
                                                                       3x
||----------------------------------|----------------------------------||-|
||o---------------------------------|---------------------------------o||-|
||----------------------------------|----------------------------------||-|
||----------0---------------8-------|---------2---------------7--------||-|
||o---------0---------------8-------|---------2---------------7-------o||-|
||--0-0-0-0-0-0-0-8-8-8-8-8-8-8-8-8-|-2-2-2-2-2-2-2-7-7-7-7-7-7-7-7-7--||-|


  PM--|    PM------|                  PM--|    PM--|   PM
|-------------------------------|--------------------------------|
|-------------------------------|--------------------------------|
|-------------------------------|-<5>----------------------------|
|-------13-----------7------<5>-|-----------13-------7---7-7-7-7-|
|-------13-----------7--<5>-----|-----------13-------7---7-7-7-7-|
|-0-0-0-13-0-0-0-0-0-7----------|-----0-0-0-13-0-0-0-7-0-7-7-7-7-|


  PM--|    PM------|
|------------------------------------|
|------------------------------------|
|------------------------------------|
|-------13-----------7------<5>------|
|-------13-----------7--<5>-----<5>--|
|-0-0-0-13-0-0-0-0-0-7---------------|


  PM--|    PM--|
|----------------------|-------------|
|----------------------|-------------|
|----------------------|-------------|
|-------13-------8-8-8-|-8-8-8-0-0-0-|
|-------13-------8-8-8-|-8-8-8-0-0-0-|
|-0-0-0-13-0-0-0-8-8-8-|-8-8-8-0-0-0-|


      PM|     PM|       PM|                  PM|     PM|
|-------------------|--------------------|---------------|
|-------------------|--------------------|---------------|
|-------------------|--------------------|---------------|
|-0-3-----3-3-----3-|-3-----3-10-10-10-5-|-8-----8-8-----|
|-0-3-----3-3-----3-|-3-----3-10-10-10-5-|-8-----8-8-----|
|-0-3-3-3-3-3-3-3-3-|-3-3-3-3-10-10-10-5-|-8-8-8-8-8-8-8-|


      PM|               PM|     PM|       PM|                  PM|     PM|
|-----------------|-------------------|--------------------|---------------|
|-----------------|-------------------|--------------------|---------------|
|-----------------|-------------------|--------------------|---------------|
|-8-8-----8-0-0-0-|-0-3-----3-3-----3-|-3-----3-10-10-10-5-|-8-----8-8-----|
|-8-8-----8-0-0-0-|-0-3-----3-3-----3-|-3-----3-10-10-10-5-|-8-----8-8-----|
|-8-8-8-8-8-0-0-0-|-0-3-3-3-3-3-3-3-3-|-3-3-3-3-10-10-10-5-|-8-8-8-8-8-8-8-|


      PM|   PM------------------------------|   PM-----
|-----------------------|-----------------------------|
|-----------------------|-----------------------------|
|-----------------------|-----------------------------|
|-8-8-----8-------------|---------------------0-------|
|-8-8-----8-------------|---------------------0-------|
|-8-8-8-8-8-0-0-0-0-0-0-|-0-0-0-0-0-0-0-0-0-0-0-0-0-8-|


 -------|   PM----------|   PM------------|   PM--|
|---------------------------------|-------------------|
|---------------------------------|-------------------|
|---------------------------------|-------------------|
|---------8---------------2-------|---------7---------|
|---------8---------------2-------|---------7---------|
|-8-8-8-8-8-8-8-8-2-2-2-2-2-2-2-7-|-7-7-7-7-7-7-7-7---|


    PM----|   PM----------|   PM------------|   PM----------|   PM--|
                                                                        3x
||----------------------------------|-----------------------------------||
||o---------------------------------|----------------------------------o||
||----------------------------------|-----------------------------------||
||----------0---------------8-------|---------2---------------7---------||
||o---------0---------------8-------|---------2---------------7--------o||
||--0-0-0-0-0-0-0-8-8-8-8-8-8-8-8-8-|-2-2-2-2-2-2-2-7-7-7-7-7-7-7-7-7---||


  PM--|    PM------|                PM-
|-------------------------------------|
|-------------------------------------|
|-------------------------------<5>---|
|-------13-----------7------<5>-------|
|-------13-----------7--<5>-----------|
|-0-0-0-13-0-0-0-0-0-7--------------0-|


 ---|    PM--|   PM        PM----|    PM------|
|------------------------------|--------------------------------|
|------------------------------|--------------------------------|
|------------------------------|--------------------------------|
|-----13-------7---7-7-7-7-----|---13-----------7------<5>------|
|-----13-------7---7-7-7-7-----|---13-----------7--<5>-----<5>--|
|-0-0-13-0-0-0-7-0-7-7-7-7-0-0-|-0-13-0-0-0-0-0-7---------------|


  PM--|    PM--|
|----------------------|-------------|
|----------------------|-------------|
|----------------------|-------------|
|-------13-------8-8-8-|-8-8-8-0-0-0-|
|-------13-------8-8-8-|-8-8-8-0-0-0-|
|-0-0-0-13-0-0-0-8-8-8-|-8-8-8-0-0-0-|


      PM|     PM|       PM|                  PM|     PM|
|-------------------|--------------------|---------------|
|-------------------|--------------------|---------------|
|-------------------|--------------------|---------------|
|-0-3-----3-3-----3-|-3-----3-10-10-10-5-|-8-----8-8-----|
|-0-3-----3-3-----3-|-3-----3-10-10-10-5-|-8-----8-8-----|
|-0-3-3-3-3-3-3-3-3-|-3-3-3-3-10-10-10-5-|-8-8-8-8-8-8-8-|


      PM|               PM|     PM|       PM|                  PM|     PM|
|-----------------|-------------------|--------------------|---------------|
|-----------------|-------------------|--------------------|---------------|
|-----------------|-------------------|--------------------|---------------|
|-8-8-----8-0-0-0-|-0-3-----3-3-----3-|-3-----3-10-10-10-5-|-8-----8-8-----|
|-8-8-----8-0-0-0-|-0-3-----3-3-----3-|-3-----3-10-10-10-5-|-8-----8-8-----|
|-8-8-8-8-8-0-0-0-|-0-3-3-3-3-3-3-3-3-|-3-3-3-3-10-10-10-5-|-8-8-8-8-8-8-8-|


      PM|   PM----------------------------------------------|
|-----------------------|-------------------------|-----------------|-------|
|-----------------------|-------------------------|-----------------|-------|
|-----------------------|-------------------------|-----------------|-------|
|-8-8-----8-------------|-------------------------|-----------3-5-1-|-1-1-1-|
|-8-8-----8-------------|-------------------------|-----------3-5-1-|-1-1-1-|
|-8-8-8-8-8-0-0-0-0-0-0-|-0-0-0-0-0-0-0-0-0-0-0-0-|-0-0-0-0-0-3-5-1-|-1-1-1-|


|-----------------|---------------|----------------|
|-----------------|---------------|----------------|
|-----------------|---------------|----------------|
|-1-1-1-1-1-1-1-1-|-3-5-1-3-3-3-3-|-3-3-3-3-3-3--3-|
|-1-1-1-1-1-1-1-1-|-3-5-1-3-3-3-3-|-3-3-3-3-3-3--3-|
|-1-1-1-1-1-1-1-1-|-3-5-1-3-3-3-3-|-3-3-3-3-3-3--3-|


|---------------|-----------------|-----------------|------------|
|---------------|-----------------|-----------------|------------|
|---------------|-----------------|-----------------|------------|
|-5-1-1-1-1-1-1-|-1-1-1-1-1-1-3-5-|-1-3-3-3-3-3-3-3-|-3-3-3-3----|
|-5-1-1-1-1-1-1-|-1-1-1-1-1-1-3-5-|-1-3-3-3-3-3-3-3-|-3-3-3-3----|
|-5-1-1-1-1-1-1-|-1-1-1-1-1-1-3-5-|-1-3-3-3-3-3-3-3-|-3-3-3-3----|


            PM--|     PM|     PM|                  PM|       PM|     PM|
|-------------|------------------------|-----------------|---------------------|
|-------------|------------------------|-----------------|---------------------|
|-------------|------------------------|-----------------|---------------------|
|-0-0-0-0-3---|---3-3-----3-3-----3-10-|-10-10-5-8-----8-|-8-----8-8-----8-0-0-|
|-0-0-0-0-3---|---3-3-----3-3-----3-10-|-10-10-5-8-----8-|-8-----8-8-----8-0-0-|
|-0-0-0-0-3-3-|-3-3-3-3-3-3-3-3-3-3-10-|-10-10-5-8-8-8-8-|-8-8-8-8-8-8-8-8-0-0-|


        PM|     PM--|     PM|                  PM|     PM|
|-----------------|----------------------|-----------------|
|-----------------|----------------------|-----------------|
|-----------------|----------------------|-----------------|
|-0-0-3-----3-3---|---3-3-----3-10-10-10-|-5-8-----8-8-----|
|-0-0-3-----3-3---|---3-3-----3-10-10-10-|-5-8-----8-8-----|
|-0-0-3-3-3-3-3-3-|-3-3-3-3-3-3-10-10-10-|-5-8-8-8-8-8-8-8-|


      PM|              PM|     PM|     PM--|                  PM|     PM|     PM|
|------------------|---------------------|------------------|-----------------------|
|------------------|---------------------|------------------|-----------------------|
|------------------|---------------------|------------------|-----------------------|
|-8-8-----8-0-0-0--|-3-----3-3-----3-3---|---3-10-10-10-5-8-|-----8-8-----8-8-----8-|
|-8-8-----8-0-0-0--|-3-----3-3-----3-3---|---3-10-10-10-5-8-|-----8-8-----8-8-----8-|
|-8-8-8-8-8-0-0-0--|-3-3-3-3-3-3-3-3-3-3-|-3-3-10-10-10-5-8-|-8-8-8-8-8-8-8-8-8-8-8-|


            PM--|     PM|     PM|                  PM|       PM|
|-------------|------------------------|-----------------|-------|
|-------------|------------------------|-----------------|-------|
|-------------|------------------------|-----------------|-------|
|-0-0-0-0-3---|---3-3-----3-3-----3-10-|-10-10-5-8-----8-|-8-----|
|-0-0-0-0-3---|---3-3-----3-3-----3-10-|-10-10-5-8-----8-|-8-----|
|-0-0-0-0-3-3-|-3-3-3-3-3-3-3-3-3-3-10-|-10-10-5-8-8-8-8-|-8-8-8-|


      PM|   PM--|    PM--------|                PM--|    PM--|   PM
|----------------------------|-------------------------------------|
|----------------------------|-------------------------------------|
|----------------------------|--------------<5>--------------------|
|-8-8-----8-------13---------|---7------<5>-----------13-------7---|
|-8-8-----8-------13---------|---7--<5>---------------13-------7---|
|-8-8-8-8-8-0-0-0-13-0-0-0-0-|-0-7--------------0-0-0-13-0-0-0-7-0-|


          PM--|    PM------|
|------------------------------|---------------|
|------------------------------|---------------|
|------------------------------|---------------|
|-7-7-7-7-------13-----------7-|------<5>------|
|-7-7-7-7-------13-----------7-|--<5>-----<5>--|
|-7-7-7-7-0-0-0-13-0-0-0-0-0-7-|---------------|


                           >
  PM--|    PM--|
|----------------------|---------|
|----------------------|---------|
|----------------------|---------|
|-------13-------8-8-8-|-8-8\----|
|-------13-------8-8-8-|-8-8-----|
|-0-0-0-13-0-0-0-8-8-8-|-8-8-----|




--------------------------------------------------------------------------------


Tablature Legend
----------------
 h   - hammer-on
 p   - pull-off
 b   - bend
 pb  - pre-bend
 r   - bend release (if no number after the r, then release immediately)
 /\  - slide into or out of (from/to "nowhere")
 s   - legato slide
 S   - shift slide
 - natural harmonic
[n]  - artificial harmonic
n(n) - tapped harmonic
 ~   - vibrato
 tr  - trill
 T   - tap
 TP  - trem. picking
 PM  - palm muting
\n/  - tremolo bar dip; n = amount to dip
 \n  - tremolo bar down
 n/  - tremolo bar up
/n\  - tremolo bar inverted dip
 =   - hold bend; also acts as connecting device for hammers/pulls
 <> - volume swell (louder/softer)
 x   - on rhythm slash represents muted slash
 o   - on rhythm slash represents single note slash

Misc Legend
-----------
 |  - bar
||  - double bar
||o - repeat start
o|| - repeat end
*|  - double bar (ending)
 :  - bar (freetime)
 $  - Segno
 &  - Coda
Tempo markers -  = BPM(8/16=s8/s16), where s8 = swing 8ths, s16 = swing 16ths
Suggest correction
What's this?
You can suggest a correction to this tab. Community and Mods will review your correction and vote to approve or reject it.
comments
We did not receive enough feedback on this tab! Please rate:
print report bad tab
1 2 3 4 5
guest
You may want to rate the tab now too:
select rating
Please do not post tabs as comments. Select "correction" instead!