Oops, an error
Loading. Please wait.

Dehumanized Tab

version 4
version 4

Whole song

Interactive

719 views 1 this week
no commentswrite comment
1 2 3 4 5
2 more votes to show rating
add to favorites
launch autoscroll
font size
0
reset
how to read this tab
guitar tuner
Autoscroll
slow
fast
+/-
esc
set tempo
stop
Help us to improve Ultimate-Guitar.com Take our survey!
×
Author
Difficulty
Tuning
intermediate
C# G# C# F# A# D#
Gtr I (Db Ab Db Gb Bb Eb) - 'Dan Donegan'
Gtr II (Db Ab Db Gb Bb Eb) - 'Intro gtr. II'
Gtr III (Db Ab Db Gb Bb Eb) - 'Added guitar'


 Intro
  Moderate Rock Q=94
  N.C.
 4/4
  Gtr I
  PM--------------------------------------------------------------|
  S S S S S S S S S S S S S S S S   S S S S S S S S S S S S S S S S
|---------------------------------|----------------------------------|
|---------------------------------|----------------------------------|
|---------------------------------|----------------------------------|
|---------------------------------|----------------------------------|
|---------5---------------5-------|---------5---------------5--------|
|-0-0-0-0---0-0-8-8-8-8-8---8-8-8-|-3-3-3-3---3-3-7-7-7-7-7---7-2-2--|


  Gtrs I, II
  PM--------------------------------------------------------------|
  S S S S S S S S S S S S S S S S   S S S S S S S S S S S S S S S S
|---------------------------------|---------------------------------||
|---------------------------------|---------------------------------||
|---------------------------------|---------------------------------||
|---------------------------------|---------------------------------||
|---------5---------------5-------|---------5---------------5---6-6-||
|-0-0-0-0---0-0-8-8-8-8-8---8-8-8-|-3-3-3-3---3-3-7-7-7-7-7---7-----||


   Verse
    Gtr I
    PM----|   PM----------|   PM------------|   PM----------|   PM--|
    S S S S S S S S S S S S S S S S   S S S S S S S S S S S S S S S S
||----------------------------------|----------------------------------|
||o---------------------------------|----------------------------------|
||----------------------------------|----------------------------------|
||----------------------------------|----------------------------------|
||o---------5---------------5-------|---------5---------------5--------|
||--0-0-0-0---0-0-8-8-8-8-8---8-8-8-|-3-3-3-3---3-3-7-7-7-7-7---7-2-2--|


  PM----|   PM----------|   PM------------|   PM----------|   PM
  S S S S S S S S S S S S S S S S   S S S S S S S S S S S S S S S S
|---------------------------------|---------------------------------|
|---------------------------------|---------------------------------|
|---------------------------------|---------------------------------|
|---------------------------------|---------------------------------|
|---------5---------------5-------|---------5---------------5---6-6-|
|-0-0-0-0---0-0-8-8-8-8-8---8-8-8-|-3-3-3-3---3-3-7-7-7-7-7---7-----|


  PM----|   PM----------|   PM------------|   PM----------|   PM--|
  S S S S S S S S S S S S S S S S   S S S S S S S S S S S S S S S S
|---------------------------------|---------------------------------|
|---------------------------------|---------------------------------|
|---------------------------------|---------------------------------|
|---------------------------------|---------------------------------|
|---------5---------------5-------|---------5---------------5-------|
|-0-0-0-0---0-0-8-8-8-8-8---8-8-8-|-3-3-3-3---3-3-7-7-7-7-7---7-2-2-|


  PM----|   PM----------|   PM------------|   PM----------|   PM
  S S S S S S S S S S S S S S S S   S S S S S S S S S S S S S S S S
|---------------------------------|---------------------------------||
|---------------------------------|---------------------------------||
|---------------------------------|---------------------------------||
|---------------------------------|---------------------------------||
|---------5---------------5-------|---------5---------------5---6-6-||
|-0-0-0-0---0-0-8-8-8-8-8---8-8-8-|-3-3-3-3---3-3-7-7-7-7-7---7-----||


                        D5    N.C.                            E5N.C.E5N.C.E5F5
  PM--|       PM------|                     PM--|       PM--|   PM|   PM|
  S S S S S   S S S S S S S S  S   S   S    S S S S S   S S S S S S S S S S S
|-----------------------------------------|-----------------------------------|
|---------4-------------------------------|---------4-------------------------|
|---------6b8---------------------<7>-<5>-|---------6b8-----------------------|
|-----------------------------<7>---------|-----------------------------------|
|-----------------------0-----------------|-------------------2-----2-----2h3-|
|-0-0-0-------0-0-0-0-0-0-----------------|-0-0-0-------0-0-0-2-0-0-2-0-0-2h3-|


  N.C.                  D5    N.C.
  PM--|       PM------|
  S S S S S   S S S S S S S S  S   S   S
|-----------------------------------------|
|---------4-------------------------------|
|---------6b8---------------------<7>-----|
|-----------------------------<7>-----<7>-|
|-----------------------0-----------------|
|-0-0-0-------0-0-0-0-0-0-----------------|


                    Eb°
                                2/4
  PM--|       PM--|
  S S S S S   S S S E. S +E  E   +S  S +E  E E
|------------------------------|---------------||
|---------4--------------------|---------------||
|---------6b8-------8--8-(8)-8-|-(8)-8-(8)-8-8-||
|-------------------7--7-(7)-7-|-(7)-7-(7)-7-7-||
|-------------------6--6-(6)-6-|-(6)-6-(6)-6-6-||
|-0-0-0-------0-0-0------------|---------------||


 1st Chorus
  1.
  D5             F5
 4/4
     PM|       PM           PM|         PM|    PM|
  Q  S S S +S  S S +E  Q    S S E +S  S S S Q  S S E
|-------------------------|--------------------------|
|-3------3-(3)------------|--------------------------|
|-2------2-(2)------------|--------------------------|
|-0------0-(0)---3-(3)-3--|-----3-(3)-3-----3------3-|
|-0------0-(0)---3-(3)-3--|-----3-(3)-3-----3------3-|
|-0--0-0-0-(0)-0-3-(3)-3--|-3-3-3-(3)-3-3-3-3--3-3-3-|


  C5             G5    Bb5
  E. S +E  E +S  S +E  E. S
|---------------------------|
|---------------------------|
|---------------------------|
|-5--5-(5)-5-(5)------------|
|-3--3-(3)-3-(3)-5-(5)-8--8-|
|----------------5-(5)-8--8-|


                           F5
  PM|         PM|      PM|
  S S E +S  S S S E. S S S E
|----------------------------|
|----------------------------|
|----------------------------|
|----------------------------|
|-----8-(8)-8-----8--8-----3-|
|-8-8-8-(8)-8-8-8-8--8-8-8-3-|


  D5           F5
       PM|   PM           PM|         PM|    PM|
  E. S S S E S S +E  Q    S S E +S  S S S Q  S S E
|-----------------------|--------------------------|
|-3--------3------------|--------------------------|
|-2--------2------------|--------------------------|
|-0--0-----0---3-(3)-3--|-----3-(3)-3-----3------3-|
|-0--0-----0---3-(3)-3--|-----3-(3)-3-----3------3-|
|-0--0-0-0-0-0-3-(3)-3--|-3-3-3-(3)-3-3-3-3--3-3-3-|


  C5             G5    Bb5                             A5
                              PM|         PM|      PM|
  E. S +E  E +S  S +E  E. S   S S E +S  S S S E. S S S E
|---------------------------|----------------------------|
|---------------------------|----------------------------|
|---------------------------|----------------------------|
|-5--5-(5)-5-(5)------------|----------------------------|
|-3--3-(3)-3-(3)-5-(5)-8--8-|-----8-(8)-8-----8--8-----7-|
|----------------5-(5)-8--8-|-8-8-8-(8)-8-8-8-8--8-8-8-7-|


  N.C.
  PM------------------|
  S S S S S S S S S S S S Q
|------------------------------|
|------------------------------|
|------------------------------|
|------------------------------|
|------------------------------|
|-0-0-0---0-0-0---0-0-0--------|


  PM----|   PM----------|   PM------------|   PM----------|   PM--|
  S S S S S S S S S S S S S S S S   S S S S S S S S S S S S S S S S
|---------------------------------|---------------------------------|
|---------------------------------|---------------------------------|
|---------------------------------|---------------------------------|
|---------------------------------|---------------------------------|
|---------5---------------5-------|---------5---------------5-------|
|-0-0-0-0---0-0-8-8-8-8-8---8-8-8-|-3-3-3-3---3-3-7-7-7-7-7---7-2-2-|


  PM----|   PM----------|   PM------------|   PM----------|   PM
  S S S S S S S S S S S S S S S S   S S S S S S S S S S S S S S S S
|---------------------------------|----------------------------------||
|---------------------------------|---------------------------------o||
|---------------------------------|----------------------------------||
|---------------------------------|----------------------------------||
|---------5---------------5-------|---------5---------------5---6-6-o||
|-0-0-0-0---0-0-8-8-8-8-8---8-8-8-|-3-3-3-3---3-3-7-7-7-7-7---7------||


 2nd and 3rd Choruses
  2.
  $
  D5           F5                                    C5             G5    Bb5
       PM|   PM           PM|         PM|    PM|
  E. S S S E S S +E  Q    S S E +S  S S S Q  S S E   E. S +E  E +S  S +E  E. S
|-----------------------|--------------------------|---------------------------|
|-3--------3------------|--------------------------|---------------------------|
|-2--------2------------|--------------------------|---------------------------|
|-0--0-----0---3-(3)-3--|-----3-(3)-3-----3------3-|-5--5-(5)-5-(5)------------|
|-0--0-----0---3-(3)-3--|-----3-(3)-3-----3------3-|-3--3-(3)-3-(3)-5-(5)-8--8-|
|-0--0-0-0-0-0-3-(3)-3--|-3-3-3-(3)-3-3-3-3--3-3-3-|----------------5-(5)-8--8-|


                           F5  D5          F5
  PM|         PM|      PM|          PM|               PM|         PM|    PM|
  S S E +S  S S S E. S S S E   E. S S S E. S +E  Q    S S E +S  S S S Q  S S E
|----------------------------|----------------------|--------------------------|
|----------------------------|-3--------3-----------|--------------------------|
|----------------------------|-2--------2-----------|--------------------------|
|----------------------------|-0--0-----0--3-(3)-3--|-----3-(3)-3-----3------3-|
|-----8-(8)-8-----8--8-----3-|-0--0-----0--3-(3)-3--|-----3-(3)-3-----3------3-|
|-8-8-8-(8)-8-8-8-8--8-8-8-3-|-0--0-0-0-0--3-(3)-3--|-3-3-3-(3)-3-3-3-3--3-3-3-|


                                                To Coda
  C5             G5    Bb5                             A5
                              PM|         PM|      PM|
  E. S +E  E +S  S +E  E. S   S S E +S  S S S E. S S S E
|---------------------------|----------------------------|
|---------------------------|----------------------------|
|---------------------------|----------------------------|
|-5--5-(5)-5-(5)------------|----------------------------|
|-3--3-(3)-3-(3)-5-(5)-8--8-|-----8-(8)-8-----8--8-----7-|
|----------------5-(5)-8--8-|-8-8-8-(8)-8-8-8-8--8-8-8-7-|


  N.C.
  PM------------------|   PM--|
  S S S S S S S S S S S S S S S S
|---------------------------------|
|---------------------------------|
|---------------------------------|
|---------------------------------|
|---------------------------------|
|-0-0-0---0-0-0---0-0-0---0-0-0---|


                                  Bridge
                                   F5 G5     Eb5           Eb5(tyBbEbj7EbEb52b
  PM--------------------------|
                          |-3-|
  S S S S S S S S S S S S e e e    E.  S +E  E +E  E E E   E E E E E E E E
|-------------------------------||-----------------------|-----------------|
|-------------------------------||-----------------------|-----------------|
|-------------------------------||-----------------------|-3-3-3-2---------|
|-------------------------------||-3--/5-(5)-1-(1)-1-1-1-|-1-1-1-1-5-5-3-1-|
|-------------------------------||-3--/5-(5)-1-(1)-1-1-1-|-1-1-1-1-1-1-1-1-|
|-0-0---0-0---0-0---0-0---0-0-0-||-3--/5-(5)-1-(1)-1-1-1-|-1-1-1-1-1-1-1-1-|


  F5 G5     Eb5   G5      F     FsusF5         G5     Eb5
  E.  S +E  E +E  E E E   E E E E E E E E   E.  S +E  E +E  E E E
|-----------------------|-----------------|-----------------------|
|-----------------------|-----------------|-----------------------|
|-----------------------|-----------------|-----------------------|
|-3--/5-(5)-1-(1)-3-3-3-|-7-7-7-5-5-3-3-3-|-3--/5-(5)-1-(1)-1-1-1-|
|-3--/5-(5)-1-(1)-3-3-3-|-3-3-3-3-3-3-3-3-|-3--/5-(5)-1-(1)-1-1-1-|
|-3--/5-(5)-1-(1)-3-3-3-|-3-3-3-3-3-3-3-3-|-3--/5-(5)-1-(1)-1-1-1-|


                                              D.S. al Coda
  Eb5(tyBbEbj7EbEb52F5 G5     Eb5   F5      F     FsusF5
  E E E E E E E E   E.  S +E  E +E  E E E   E E E E E E E E
|-----------------|-----------------------|-----------------||
|-----------------|-----------------------|-----------------||
|-3-3-3-2---------|-----------------------|-----------------||
|-1-1-1-1-5-5-3-1-|-3--/5-(5)-1-(1)-3-3-3-|-7-7-7-5-5-3-3-3-||
|-1-1-1-1-1-1-1-1-|-3--/5-(5)-1-(1)-3-3-3-|-3-3-3-3-3-3-3-3-||
|-1-1-1-1-1-1-1-1-|-3--/5-(5)-1-(1)-3-3-3-|-3-3-3-3-3-3-3-3-||


  &
  D5            F5                                C5             G5    Bb5
                       PM|         PM|    PM|
  E. S +E  E Q  E. S   S S E +S  S S S Q  S S E   E. S +E  E +S  S +E  E. S
|--------------------|--------------------------|---------------------------|
|-3--3-(3)-3---------|--------------------------|---------------------------|
|-2--2-(2)-2---------|--------------------------|---------------------------|
|-0--0-(0)-0----3--3-|-----3-(3)-3-----3------3-|-5--5-(5)-5-(5)------------|
|-0--0-(0)-0----3--3-|-----3-(3)-3-----3------3-|-3--3-(3)-3-(3)-5-(5)-8--8-|
|-0--0-(0)-0----3--3-|-3-3-3-(3)-3-3-3-3--3-3-3-|----------------5-(5)-8--8-|


                         F5  D5           F5
  PM|         PM|    PM|          PM|                PM|         PM|    PM|
  S S E +S  S S S Q  S S E   E. S S S E S S +E  Q    S S E +S  S S S Q  S S E
|--------------------------|-----------------------|--------------------------|
|--------------------------|-3--------3------------|--------------------------|
|--------------------------|-2--------2------------|--------------------------|
|--------------------------|-0--0-----0---3-(3)-3--|-----3-(3)-3-----3------3-|
|-----8-(8)-8-----8------3-|-0--0-----0---3-(3)-3--|-----3-(3)-3-----3------3-|
|-8-8-8-(8)-8-8-8-8--8-8-3-|-0--0-0-0-0---3-(3)-3--|-3-3-3-(3)-3-3-3-3--3-3-3-|


  C5             G5    Bb5                           A5
                              PM|         PM|    PM|
  E. S +E  E +S  S +E  E. S   S S E +S  S S S Q  S S E
|---------------------------|--------------------------||
|---------------------------|--------------------------||
|---------------------------|--------------------------||
|-5--5-(5)-5-(5)------------|--------------------------||
|-3--3-(3)-3-(3)-5-(5)-8--8-|-----8-(8)-8-----8------7-||
|----------------5-(5)-8--8-|-8-8-8-(8)-8-8-8-8--8-8-7-||


 Outro
  N.C.                  D5    N.C.                            E5N.C.E5N.C.E5F5
  PM--|       PM------|                     PM--|       PM--|   PM|   PM|
  S S S S S   S S S S S S S S  S   S   S    S S S S S   S S S S S S S S S S S
|-----------------------------------------|-----------------------------------|
|---------4-------------------------------|---------4-------------------------|
|---------6b8---------------------<7>-<5>-|---------6b8-----------------------|
|-----------------------------<7>---------|-----------------------------------|
|-----------------------0-----------------|-------------------2-----2-----2h3-|
|-0-0-0-------0-0-0-0-0-0-----------------|-0-0-0-------0-0-0-2-0-0-2-0-0-2h3-|


  N.C.                  D5    N.C.
  Gtr I
  PM--|       PM------|
  S S S S S   S S S S S S S S  S   S   S
|-----------------------------------------|
|---------4-------------------------------|
|---------6b8---------------------<7>-----|
|-----------------------------<7>-----<7>-|
|-----------------------0-----------------|
|-0-0-0-------0-0-0-0-0-0-----------------|
|
| Gtr III
| W
|-----------------------------------------|
|-----------------------------------------|
|-----------------------------------------|
|-----------------------------------------|
|-----------------------------------------|
|-----------------------------------------|


                    Eb°
                                  >
  PM--|       PM--|
  S S S S S   S S S E. S +E  E   +W           +W
|------------------------------|------------|--------*|
|---------4--------------------|------------|--------*|
|---------6b8-------8--8-(8)-8-|-(8)--------|-(8)----*|
|-------------------7--7-(7)-7-|-(7)--------|-(7)----*|
|-------------------6--6-(6)-6-|-(6)--------|-(6)----*|
|-0-0-0-------0-0-0------------|------------|--------*|
|
|                                 \6
| H                 E. S +E  E   +W            W
|------------------------------|------------|--------*|
|------------------------------|------------|--------*|
|-------------------8--8-(8)-8-|-(8)--------|--------*|
|-------------------7--7-(7)-7-|-(7)--------|--------*|
|-------------------6--6-(6)-6-|-(6)--------|--------*|
|------------------------------|------------|--------*|




--------------------------------------------------------------------------------


Duration Legend
---------------
W - whole; H - half; Q - quarter; E - 8th; S - 16th; T - 32nd; X - 64th; a - acciaccatura
+ - note tied to previous; . - note dotted; .. - note double dotted
Uncapitalized letters represent notes that are staccato (1/2 duration)
Irregular groupings are notated above the duration line
Duration letters will always appear directly above the note/fret number it represents the
duration for.  Duration letters with no fret number below them represent rests.  Multi-
bar rests are notated in the form Wxn, where n is the number of bars to rest for.  Low
melody durations appear below the staff

Tablature Legend
----------------
 h   - hammer-on
 p   - pull-off
 b   - bend
 pb  - pre-bend
 r   - bend release (if no number after the r, then release immediately)
 /\  - slide into or out of (from/to "nowhere")
 s   - legato slide
 S   - shift slide
 - natural harmonic
[n]  - artificial harmonic
n(n) - tapped harmonic
 ~   - vibrato
 tr  - trill
 T   - tap
 TP  - trem. picking
 PM  - palm muting
\n/  - tremolo bar dip; n = amount to dip
 \n  - tremolo bar down
 n/  - tremolo bar up
/n\  - tremolo bar inverted dip
 =   - hold bend; also acts as connecting device for hammers/pulls
 <> - volume swell (louder/softer)
 x   - on rhythm slash represents muted slash
 o   - on rhythm slash represents single note slash

Misc Legend
-----------
 |  - bar
||  - double bar
||o - repeat start
o|| - repeat end
*|  - double bar (ending)
 :  - bar (freetime)
 $  - Segno
 &  - Coda
Tempo markers -  = BPM(8/16=s8/s16), where s8 = swing 8ths, s16 = swing 16ths
Suggest correction
Give kudos to tab author, rate the tab!
1 2 3 4 5
comments
print report bad tab
guest
You may want to rate the tab now too:
select rating
Wanna post a correction for this tab? Suggest correction