Oops, an error
Loading. Please wait.

Dehumanized Tab

version 5
version 5

Whole song

Interactive

87 views 1 this week
no commentswrite comment
1 2 3 4 5
please rate
add to favorites
launch autoscroll
font size
0
reset
how to read this tab
guitar tuner
Tab Pro tools
  • play this tab
  • loop segment
  • change instrument
  • show fretboard
  • metronome
Autoscroll
slow
fast
+/-
esc
set tempo
stop
Contributor
Difficulty
Tuning
intermediate
C# G# C# F# A# D#
Disturbed, arguably the best band in the world, has one excellent song, Dehumanized, 
released on the B-Side of Ten Thousand Fists and was also released on their bonus track 
album, The Lost Children.

Tuning: Drop C# (Db)
Low to High: C#, G#, C#, F#, A#, D#
Low to High: Db, Ab, Db, Gb, Bb, Eb


Intro:

Eb|----------------------------------------------|-----------------------------------------------|
Bb|----------------------------------------------|-----------------------------------------------|
Gb|----------------------------------------------|-----------------------------------------------|
Db|----------------------------------------------|-----------------------------------------------|
Ab|------5----------5----------5----------5------|------5----------5----------5----------5---66--|
Db|-0000---000-8888---888-2222---222-7777---711--|-0000---000-8888---888-2222---222-7777---7-----|
    ****   *** ****   *** ****   *** ****   ***    ****   *** ****   *** ****   *** **** 
  *


Verse 1:

Eb|----------------------------------------------|-----------------------------------------------|
Bb|----------------------------------------------|-----------------------------------------------|
Gb|----------------------------------------------|-----------------------------------------------|
Db|----------------------------------------------|-----------------------------------------------|x2
Ab|------5----------5----------5----------5------|------5----------5----------5----------5---66--|
Db|-0000---000-8888---888-2222---222-7777---711--|-0000---000-8888---888-2222---222-7777---7-----|
    ****   *** ****   *** ****   *** ****   ***    ****   *** ****   *** ****   *** **** 
  *


Pre-Chorus 1:

Eb|------------------------------------------------------|
Bb|------------------------------------------------------|
Gb|------8---------------5*------8-----------------------|
Db|------8------------5*---------8-----------------------|
Ab|----------------5*------------------0----0----1-3-----|
Db|-000----000000-----------000----000-0-00-0-00-1-3-----|
    ***    ******           ***    ***   **   **
Eb|------------------------------------------------------|
Bb|------------------------------------------------------|
Gb|------8------------7*---------8-----------------------|
Db|------8---------------7*------8-----8--8--8--8--8--8--|
Ab|----------------5*------------------6--6--6--6--6--6--|
Db|-000----000000-----------000----000----7-----7-----7--|
    ***    ******           ***    ***


Chorus 1:

Eb|-------------------------------------------------------------------------------|
Bb|-------------------------------------------------------------------------------|
Gb|-------------------------------------------------------------------------------|
Db|-0-0----0-0-3-3--3----3-33----3--3----3--5--5--5--5--8-8----8-88----8--8----7--|  x2
Ab|-0-0-00-0-0-3-3--3-33-3-33-33-3--3-33-3--3--3--3--5--8-8-88-8-88-88-8--8-88-7--|
Db|-0-0-00-0-0-3-3--3-33-3-33-33-3--3-33-3-----------5--8-8-88-8-88-88-8--8-88-7--|
        **            **      **      **                    **      **      **


Post-Chorus 1:

Eb|--------------|
Bb|--------------|
Gb|--------------|
Db|--------------|
Ab|--------------|
Db|-000-000-000--|
    *** *** ***


Pre-Verse:

Eb|----------------------------------------------|-----------------------------------------------|
Bb|----------------------------------------------|-----------------------------------------------|
Gb|----------------------------------------------|-----------------------------------------------|
Db|----------------------------------------------|-----------------------------------------------|
Ab|------5----------5----------5----------5------|------5----------5----------5----------5---66--|
Db|-0000---000-8888---888-2222---222-7777---711--|-0000---000-8888---888-2222---222-7777---7-----|
    ****   *** ****   *** ****   *** ****   ***    ****   *** ****   *** ****   *** **** 
  *


Verse 2:

Eb|----------------------------------------------|-----------------------------------------------|
Bb|----------------------------------------------|-----------------------------------------------|
Gb|----------------------------------------------|-----------------------------------------------|
Db|----------------------------------------------|-----------------------------------------------| x2
Ab|------5----------5----------5----------5------|------5----------5----------5----------5---66--|
Db|-0000---000-8888---888-2222---222-7777---711--|-0000---000-8888---888-2222---222-7777---7-----|
    ****   *** ****   *** ****   *** ****   ***    ****   *** ****   *** ****   *** **** 
  *


Pre-Chorus 2:

Eb|------------------------------------------------------|
Bb|------------------------------------------------------|
Gb|------8---------------5*------8-----------------------|
Db|------8------------5*---------8-----------------------|
Ab|----------------5*------------------0----0----1-3-----|
Db|-000----000000-----------000----000-0-00-0-00-1-3-----|
    ***    ******           ***    ***   **   **
Eb|------------------------------------------------------|
Bb|------------------------------------------------------|
Gb|------8------------7*---------8-----------------------|
Db|------8---------------7*------8-----8--8--8--8--8--8--|
Ab|----------------5*------------------6--6--6--6--6--6--|
Db|-000----000000-----------000----000----7-----7-----7--|
    ***    ******           ***    ***

Chorus 2:

Eb|-------------------------------------------------------------------------------|
Bb|-------------------------------------------------------------------------------|
Gb|-------------------------------------------------------------------------------|
Db|-0-0----0-0-3-3--3----3-33----3--3----3--5--5--5--5--8-8----8-88----8--8----7--|  x2
Ab|-0-0-00-0-0-3-3--3-33-3-33-33-3--3-33-3--3--3--3--5--8-8-88-8-88-88-8--8-88-7--|
Db|-0-0-00-0-0-3-3--3-33-3-33-33-3--3-33-3-----------5--8-8-88-8-88-88-8--8-88-7--|
        **            **      **      **                    **      **      **


Post-Chorus 2:

Eb|------------------------------------------------------|
Bb|------------------------------------------------------|
Gb|------------------------------------------------------|
Db|------------------------------------------------------|
Ab|------------------------------------------------------|
Db|-000-000-000-000-00--00--00--00--0---0---0------------|
    *** *** *** *** **  **  **  **  *   *   *


Bridge:

Eb|------------------------------------------------------------------------|
Bb|------------------------------------------------------------------------|
Gb|------------------------------------------------------------------------|
Db|-3---5---1---1-1-1-1-1-1-1-1-1-1-1---3---5---1---3-3-3-3-3-3-3-3-3-3-3--|  2x
Ab|-3---5---1---1-1-1-1-1-1-1-1-1-1-1---3---5---1---3-3-3-3-3-3-3-3-3-3-3--|
Db|-3---5---1---1-1-1-1-1-1-1-1-1-1-1---3---5---1---3-3-3-3-3-3-3-3-3-3-3--|


Chorus 3:

Eb|----------------------------------------------------------------------------------|
Bb|----------------------------------------------------------------------------------|
Gb|----------------------------------------------------------------------------------|
Db|-0-0----0-0-3-3--3----3-33----3--3----3--5--5--5--5--8-8----8-88----8--8----7-----|  x2
Ab|-0-0-00-0-0-3-3--3-33-3-33-33-3--3-33-3--3--3--3--5--8-8-88-8-88-88-8--8-88-7-----|
Db|-0-0-00-0-0-3-3--3-33-3-33-33-3--3-33-3-----------5--8-8-88-8-88-88-8--8-88-7-----|
        **            **      **      **                    **      **      **

Eb|----------------------------------------------------------------------------------|
Bb|----------------------------------------------------------------------------------|
Gb|----------------------------------------------------------------------------------|
Db|-0---0---0-----3-3--3----3-33----3--3----3--5--5--5--5--8-8----8-88----8--8----7--|
Ab|-0---0---0-----3-3--3-33-3-33-33-3--3-33-3--3--3--3--5--8-8-88-8-88-88-8--8-88-7--|
Db|-0---0---0-----3-3--3-33-3-33-33-3--3-33-3-----------5--8-8-88-8-88-88-8--8-88-7--|
                         **      **      **                    **      **      **

Eb|----------------------------------------------------------------------------------|
Bb|----------------------------------------------------------------------------------|
Gb|----------------------------------------------------------------------------------|
Db|-0-0----0-0-3-3--3----3-33----3--3----3--5--5--5--5--8-8----8-88----8--8----7-----|
Ab|-0-0-00-0-0-3-3--3-33-3-33-33-3--3-33-3--3--3--3--5--8-8-88-8-88-88-8--8-88-7-----|
Db|-0-0-00-0-0-3-3--3-33-3-33-33-3--3-33-3-----------5--8-8-88-8-88-88-8--8-88-7-----|
        **            **      **      **                    **      **      **


Outro:

Eb|------------------------------------------------------|
Bb|------------------------------------------------------|
Gb|------8---------------5*------8-----------------------|
Db|------8------------5*---------8-----------------------|
Ab|----------------5*------------------0----0----1-3-----|
Db|-000----000000-----------000----000-0-00-0-00-1-3-----|
    ***    ******           ***    ***   **   **
Eb|------------------------------------------------------|
Bb|------------------------------------------------------|
Gb|------8------------7*---------8-----------------------|
Db|------8---------------7*------8-----8--8--8-----------|
Ab|----------------5*------------------6--6--6-----------|
Db|-000----000000-----------000----000----7--------------|
    ***    ******           ***    ***
comments
We did not receive enough feedback on this tab! Please rate:
print report bad tab
1 2 3 4 5
I want to post or [tab]
guest
You may want to rate the tab now too:
select rating
Please do not post tabs as comments. Select "correction" instead!