Oops, an error
Loading. Please wait.
We have an official Deify tab made by UG professional guitarists. Check out the tab »
×
4,124 views 1 this week
4 commentsread comments
1 2 3 4 5
x 4
add to favorites
×
Save as Personal and add changes to this tab that will be seen only by you. Learn more ›
×
You can save this tab as Personal to edit and correct it or add notes. All changes will be seen only by you. Learn more »
launch autoscroll
font size
0
reset
guitar tuner
edit
Autoscroll
slow
fast
+/-
esc
set tempo
stop
Author
Song Name: Deify
Band: Disturbed

Tuning: cadg

0:16

Intro
G|-------------------------------------------------------------|
D|-------------------------------------------------------------|
A|-11-11-11-11-------------------------------------------------|
C|-----------------555533-33-33-33-115533-33-33-33-------------|

-----------------------------------|
-----------------------------------|
-----------------------------------|  x2
3333-11-11-00-00-5555--------------|

(Break)

Verse
G|------------------------------------------------------------------------|
D|------------------------------------------------------------------------|
A|1111112222--------------------1111112222--------------------------------|   x4
C|---------------5555111188886----------------5555111188886---------------|


Pre-Chorus
G|------------------------------------|
D|------------------------------------|
A|------------------------------------|   x4
C|666666888888555566666685|


Chorus
G|-------------------------------------------------------------|
D|-------------------------------------------------------------|
A|-11-11-11-11-------------------------------------------------|
C|-----------------555533-33-33-33-115533-33-33-33-------------|

----------------------------------|
----------------------------------|
----------------------------------|  x2
3333-11-11-00-00-5555-------------|

G|------------------------|
D|------------------------|
A|-01112101-0112101|   x2
C|------------------------|


Verse
G|------------------------------------------------------------------------|
D|------------------------------------------------------------------------|
A|1111112222--------------------1111112222--------------------------------|   x4
C|---------------5555111188886----------------5555111188886---------------|


Pre-Chorus
G|------------------------------------|
D|------------------------------------|
A|------------------------------------|   x4
C|666666888888555566666685|


  Chorus
G|-------------------------------------------------------------|
D|-------------------------------------------------------------|
A|-11-11-11-11-------------------------------------------------|
C|-----------------555533-33-33-33-115533-33-33-33-------------|

----------------------------------|
----------------------------------|
----------------------------------|  x2
3333-11-11-00-00-5555-------------|


(Break)


G|--------------------------------------------------------------------|
D|--------------------------------------------------------------------|
A|111111111111111144p3h4p3h4p3h4--------------------------------------|
C|---------------------------------------------88p7h8p7h8p7h8---------|

G|------------|
D|------------|
A|11111111|   x6
C|------------|

G|--------------------------------------------|
D|--------------------------------------------|
A|44p3h4p3h4p3h4------------------------------|
C|---------------------88p7h8p7h8p7h8---------|


^^^
Play those two sections together 3x

  Chorus
G|-------------------------------------------------------------|
D|-------------------------------------------------------------|
A|-11-11-11-11-------------------------------------------------|
C|-----------------555533-33-33-33-115533-33-33-33-------------|

-----------------------------------|
-----------------------------------|
-----------------------------------|  x1
3333-11-11-00-00-5555--------------|


(Drum part)

Bridge
G|------------------------------------------------------------------------|
D|------------------------------------------------------------------------|
A|11-11-11-11-------------------------------------------------------------|
C|---------------5\1-33-33-33-33-115533-33-33-33-3-3-1--------------------|

Chorus
G|-------------------------------------------------------------|
D|-------------------------------------------------------------|
A|-11-11-11-11-------------------------------------------------|
C|-----------------555533-33-33-33-115533-33-33-33-------------|

-----------------------------------|
-----------------------------------|
-----------------------------------|  x2
3333-11-11-00-00-5555--------------|

G|------------------------|
D|------------------------|
A|-01112101-0112101|   x4
C|------------------------|


Well, that was my first tab, so I hope I did ok. Awesome song, fun to play.


Jamiet17
Suggest correction
Creating personal tab
Creating personal tab
You can edit any tab online and save it as your Personal.

You can edit, replace or remove any tab part or add personal notes – all changes will be seen only by you.

Personal tabs can be accessed anytime from any device, even offline.
Learn more »
comments
print report bad tab
4 comments total. Showing first comments.
+1 reply
robt18 10 Nov 19, 2006 08:00 AM

Drop C tuning -
F
C
G
C

0 reply
jamiet17 61 Dec 02, 2006 09:45 AM

yeah sorry i screwed up the tuning

0 reply
WoW guitarist 10 Dec 29, 2006 06:10 AM

jamiet u no you can edit the tab and change it, right?

guest
You may want to rate the tab now too:
select rating
Wanna post a correction for this tab? Suggest correction