Oops, an error
Loading. Please wait.
We have an official Deify tab made by UG professional guitarists. Check out the tab »
×
1,419 views 1 this week
1 commentread comment
1 2 3 4 5
2 more votes to show rating
add to favorites
×
Save as Personal and add changes to this tab that will be seen only by you. Learn more ›
×
You can save this tab as Personal to edit and correct it or add notes. All changes will be seen only by you. Learn more »
launch autoscroll
font size
0
reset
guitar tuner
edit
Autoscroll
slow
fast
+/-
esc
set tempo
stop
Difficulty
intermediate
Bass
                                                              
Gb||-------------------|------------------|------------------|
Db||-------------------|------------------|------------------|
Ab||-------------------|------------------|------------------|
Eb||-------------------|------------------|------------------|
Bb||--0----------------|------------------|------------------|


                                                                     
------------------|------------------|------------------------------|
------------------|------------------|------------------------------|
------------------|------------------|--2-2--2-2--2-2--2-2----------|
------------------|------------------|----------------------4-4-4-4-|
------------------|------------------|--0-0--0-0--0-0--0-0----------|


                                                              
------------------------------|------------------------------|
------------------------------|------------------------------|
------------------------------|------------------------------|
--2-2--2-2--2-2--2-2--0-0-4-4-|--2-2--2-2--2-2--2-2--2-2-2-2-|
------------------------------|------------------------------|


                                                              
------------------------------|------------------------------|
------------------------------|------------------------------|
------------------------------|--2-2--2-2--2-2--2-2----------|
--0-0--0-0------------4-4-4-4-|----------------------4-4-4-4-|
------------2-2--2-2----------|--0-0--0-0--0-0--0-0----------|


                                                              
------------------------------|------------------------------|
------------------------------|------------------------------|
------------------------------|------------------------------|
--2-2--2-2--2-2--2-2--0-0-4-4-|--2-2--2-2--2-2--2-2--2-2-2-2-|
------------------------------|------------------------------|


                                        
------------------------------|----|---|
------------------------------|----|---|
------------------------------|----|---|
--0-0--0-0------------4-4-4-4-|----|---|
------------2-2--2-2----------|----|---|


                                                   
--------------------------------------------------|
--------------------------------------------------|
--2-2-2-2-2-2-3-3-3-3-----------------------------|
----------------------4-4-4-4-0-0-0-0-7-7-7-7-5-5-|
--------------------------------------------------|


                                                   
--------------------------------------------------|
--------------------------------------------------|
--2-2-2-2-2-2-3-3-3-3-----------------------------|
----------------------4-4-4-4-0-0-0-0-7-7-7-7-----|
----------------------------------------------5-5-|


                                                   
--------------------------------------------------|
--------------------------------------------------|
--2-2-2-2-2-2-3-3-3-3-----------------------------|
----------------------4-4-4-4-0-0-0-0-7-7-7-7-5-5-|
--------------------------------------------------|


                                                   
--------------------------------------------------|
--------------------------------------------------|
--2-2-2-2-2-2-3-3-3-3-----------------------------|
----------------------4-4-4-4-0-0-0-0-7-7-7-7-----|
----------------------------------------------5-5-|


                                                   
--------------------------------------------------|
--------------------------------------------------|
--------------------------------------------------|
----------------------4-4-4-4-0-0-0-0-7-7-7-7-5-5-|
--0-0-0-0-0-0-1-1-1-1-----------------------------|


                                                   
--------------------------------------------------|
--------------------------------------------------|
--------------------------------------------------|
----------------------4-4-4-4-0-0-0-0-7-7-7-7-----|
--0-0-0-0-0-0-1-1-1-1-------------------------5-5-|


                                                   
--------------------------------------------------|
--------------------------------------------------|
--------------------------------------------------|
----------------------4-4-4-4-0-0-0-0-7-7-7-7-5-5-|
--0-0-0-0-0-0-1-1-1-1-----------------------------|


                                                   
--------------------------------------------------|
--------------------------------------------------|
--------------------------------------------------|
----------------------4-4-4-4-0-0-0-0-7-7-7-7-----|
--0-0-0-0-0-0-1-1-1-1-------------------------5-5-|


                                                                              
--------------------------------------|--------------------------------------|
--------------------------------------|--------------------------------------|
--------------------------------------|--------------------------------------|
--5--5-5---7---7---4--4--5--5--5-7-4--|--5--5-5---7---7---4--4--5--5--5-7-4--|
--------------------------------------|--------------------------------------|


                                       
--------------------------------------|
--------------------------------------|
--------------------------------------|
--5--5-5---7---7---4--4--5--5--5-7-4--|
--------------------------------------|


                                                                               
-----------------------------------------------|------------------------------|
-----------------------------------------------|------------------------------|
--10--10-10---12---12---9--9--10--10--10-12----|--2-2--2-2--2-2--2-2----------|
-----------------------------------------------|----------------------4-4-4-4-|
--------------------------------------------7--|--0-0--0-0--0-0--0-0----------|


                                                              
------------------------------|------------------------------|
------------------------------|------------------------------|
------------------------------|------------------------------|
--2-2--2-2--2-2--2-2--0-0-4-4-|--2-2--2-2--2-2--2-2--2-2-2-2-|
------------------------------|------------------------------|


                                                              
------------------------------|------------------------------|
------------------------------|------------------------------|
------------------------------|--2-2--2-2--2-2--2-2----------|
--0-0--0-0------------4-4-4-4-|----------------------4-4-4-4-|
------------2-2--2-2----------|--0-0--0-0--0-0--0-0----------|


                                                              
------------------------------|------------------------------|
------------------------------|------------------------------|
------------------------------|------------------------------|
--2-2--2-2--2-2--2-2--0-0-4-4-|--2-2--2-2--2-2--2-2--2-2-2-2-|
------------------------------|------------------------------|


                                                                   
------------------------------|-----------------------------------|
------------------------------|--7-9-9-9-10-9-7-9--9-9-9-10-9-7-9-|
------------------------------|-----------------------------------|
--0-0--0-0------------4-4-4-4-|-----------------------------------|
------------2-2--2-2----------|-----------------------------------|


                                    
-----------------------------------|
--7-9-9-9-10-9-7-9--9-9-9-10-9-7-9-|
-----------------------------------|
-----------------------------------|
-----------------------------------|


                                                   
--------------------------------------------------|
--------------------------------------------------|
--2-2-2-2-2-2-3-3-3-3-----------------------------|
----------------------4-4-4-4-0-0-0-0-7-7-7-7-5-5-|
--------------------------------------------------|


                                                   
--------------------------------------------------|
--------------------------------------------------|
--2-2-2-2-2-2-3-3-3-3-----------------------------|
----------------------4-4-4-4-0-0-0-0-7-7-7-7-----|
----------------------------------------------5-5-|


                                                   
--------------------------------------------------|
--------------------------------------------------|
--2-2-2-2-2-2-3-3-3-3-----------------------------|
----------------------4-4-4-4-0-0-0-0-7-7-7-7-5-5-|
--------------------------------------------------|


                                                   
--------------------------------------------------|
--------------------------------------------------|
--2-2-2-2-2-2-3-3-3-3-----------------------------|
----------------------4-4-4-4-0-0-0-0-7-7-7-7-----|
----------------------------------------------5-5-|


                                                   
--------------------------------------------------|
--------------------------------------------------|
--------------------------------------------------|
----------------------4-4-4-4-0-0-0-0-7-7-7-7-5-5-|
--0-0-0-0-0-0-1-1-1-1-----------------------------|


                                                   
--------------------------------------------------|
--------------------------------------------------|
--------------------------------------------------|
----------------------4-4-4-4-0-0-0-0-7-7-7-7-----|
--0-0-0-0-0-0-1-1-1-1-------------------------5-5-|


                                                   
--------------------------------------------------|
--------------------------------------------------|
--------------------------------------------------|
----------------------4-4-4-4-0-0-0-0-7-7-7-7-5-5-|
--0-0-0-0-0-0-1-1-1-1-----------------------------|


                                                   
--------------------------------------------------|
--------------------------------------------------|
--------------------------------------------------|
----------------------4-4-4-4-0-0-0-0-7-7-7-7-----|
--0-0-0-0-0-0-1-1-1-1-------------------------5-5-|


                                                                              
--------------------------------------|--------------------------------------|
--------------------------------------|--------------------------------------|
--------------------------------------|--------------------------------------|
--5--5-5---7---7---4--4--5--5--5-7-4--|--5--5-5---7---7---4--4--5--5--5-7-4--|
--------------------------------------|--------------------------------------|


                                       
--------------------------------------|
--------------------------------------|
--------------------------------------|
--5--5-5---7---7---4--4--5--5--5-7-4--|
--------------------------------------|


                                                                               
-----------------------------------------------|------------------------------|
-----------------------------------------------|------------------------------|
--10--10-10---12---12---9--9--10--10--10-12----|--2-2--2-2--2-2--2-2----------|
-----------------------------------------------|----------------------4-4-4-4-|
--------------------------------------------7--|--0-0--0-0--0-0--0-0----------|


                                                              
------------------------------|------------------------------|
------------------------------|------------------------------|
------------------------------|------------------------------|
--2-2--2-2--2-2--2-2--0-0-4-4-|--2-2--2-2--2-2--2-2--2-2-2-2-|
------------------------------|------------------------------|


                                                              
------------------------------|------------------------------|
------------------------------|------------------------------|
------------------------------|--2-2--2-2--2-2--2-2----------|
--0-0--0-0------------4-4-4-4-|----------------------4-4-4-4-|
------------2-2--2-2----------|--0-0--0-0--0-0--0-0----------|


                                                              
------------------------------|------------------------------|
------------------------------|------------------------------|
------------------------------|------------------------------|
--2-2--2-2--2-2--2-2--0-0-4-4-|--2-2--2-2--2-2--2-2--2-2-2-2-|
------------------------------|------------------------------|


                                                                      
------------------------------|--------------------------------------|
------------------------------|--------------------------------------|
------------------------------|----------10-----12-------10-----10-9-|
--0-0--0-0------------4-4-4-4-|--9-9-9-9----9-9----9-9-9----9-9------|
------------2-2--2-2----------|--------------------------------------|


                                                                             
-------------------------------------|--------------------------------------|
-------------------------------------|--------------------------------------|
----------10-----12-------10---------|----------10-----12-------10-----10-9-|
--9-9-9-9----9-9----9-9-9----9-9-10--|--9-9-9-9----9-9----9-9-9----9-9------|
-------------------------------------|--------------------------------------|


                                          
-----------------------------------------|
-----------------------------------------|
--------------------3-5------------------|
--12-12-12-10-12-12-----7-7-7-10-7-7-10--|
-----------------------------------------|


                                                                             
--------------------------------------|-------------------------------------|
--------------------------------------|-------------------------------------|
----------10-----12-------10-----10-9-|----------10-----12-------10---------|
--9-9-9-9----9-9----9-9-9----9-9------|--9-9-9-9----9-9----9-9-9----9-9-10--|
--------------------------------------|-------------------------------------|


                                       
--------------------------------------|
--------------------------------------|
----------10-----12-------10-----10-9-|
--9-9-9-9----9-9----9-9-9----9-9------|
--------------------------------------|


                                          
-----------------------------------------|
-----------------------------------------|
--------------------3-5------------------|
--12-12-12-10-12-12-----7-7-7-10-7-7-10--|
-----------------------------------------|


                                                                             
--------------------------------------|-------------------------------------|
--------------------------------------|-------------------------------------|
----------10-----12-------10-----10-9-|----------10-----12-------10---------|
--9-9-9-9----9-9----9-9-9----9-9------|--9-9-9-9----9-9----9-9-9----9-9-10--|
--------------------------------------|-------------------------------------|


                                       
--------------------------------------|
--------------------------------------|
----------10-----12-------10-----10-9-|
--9-9-9-9----9-9----9-9-9----9-9------|
--------------------------------------|


                                                                             
-----------------------------------------|----------------------------------|
-----------------------------------------|----------------------------------|
--------------------3-5------------------|----------------------------------|
--12-12-12-10-12-12-----7-7-7-10-7-7-10--|----------5-----7-------5-----5-4-|
-----------------------------------------|--0-0-0-0---0-0---0-0-0---0-0-----|


                                                                      
---------------------------------|-----------------------------------|
---------------------------------|-----------------------------------|
---------------------------------|-----------------------------------|
----------5-----7-------5--------|-----------------------------------|
--0-0-0-0---0-0---0-0-0---0-0-1--|--0-0-0-0-8-0-0-10-0-0-0-8-0-0-8-7-|


                                                                         
-----------------------------------------|------------------------------|
-----------------------------------------|------------------------------|
--------------------3-5------------------|--2-2--2-2--2-2--2-2----------|
--12-12-12-10-12-12-----7-7-7-10-7-7-10--|----------------------4-4-4-4-|
-----------------------------------------|--0-0--0-0--0-0--0-0----------|


                                                              
------------------------------|------------------------------|
------------------------------|------------------------------|
------------------------------|------------------------------|
--2-2--2-2--2-2--2-2--0-0-4-4-|--2-2--2-2--2-2--2-2--2-2-2-2-|
------------------------------|------------------------------|


                                                                              
------------------------------|---|---|---|---|------------------------------|
------------------------------|---|---|---|---|------------------------------|
------------------------------|---|---|---|---|--2-2--2-2--2-2--2-2----------|
--0-0--0-0------------4-4-4-4-|---|---|---|---|----------------------4-4-4-4-|
------------2-2--2-2----------|---|---|---|---|------------------------------|


                                                                 
------------------------------|----------------------------|----|
------------------------------|----------------------------|----|
------------------------------|----------------------------|----|
--2-2--2-2--2-2--2-2--0-0-4-4-|--2-2--2-2--2-2--2-2--2--0--|----|
------------------------------|----------------------------|----|


                                                              
------------------------------|------------------------------|
------------------------------|------------------------------|
--2-2--2-2--2-2--2-2----------|------------------------------|
----------------------4-4-4-4-|--2-2--2-2--2-2--2-2--0-0-4-4-|
--0-0--0-0--0-0--0-0----------|------------------------------|


                                                              
------------------------------|------------------------------|
------------------------------|------------------------------|
------------------------------|------------------------------|
--2-2--2-2--2-2--2-2--2-2-2-2-|--0-0--0-0------------4-4-4-4-|
------------------------------|------------2-2--2-2----------|


                                                              
------------------------------|------------------------------|
------------------------------|------------------------------|
--2-2--2-2--2-2--2-2----------|------------------------------|
----------------------4-4-4-4-|--2-2--2-2--2-2--2-2--0-0-4-4-|
--0-0--0-0--0-0--0-0----------|------------------------------|


                                                              
------------------------------|------------------------------|
------------------------------|------------------------------|
------------------------------|------------------------------|
--2-2--2-2--2-2--2-2--2-2-2-2-|--0-0--0-0------------4-4-4-4-|
------------------------------|------------2-2--2-2----------|


                                                                    
---------------------------------|---------------------------------|
---------------------------------|---------------------------------|
--0-2-2-2-3-2-0-2--2-2-2-3-2-0-2-|--0-2-2-2-3-2-0-2--2-2-2-3-2-0-2-|
---------------------------------|---------------------------------|
---------------------------------|---------------------------------|


                                                                          
---------------------------------|----------------------------------|---||
---------------------------------|--7-9-9-9-10-9-7-9--9-9-9-10-9-7--|---||
--0-2-2-2-3-2-0-2--2-2-2-3-2-0-2-|----------------------------------|---||
---------------------------------|----------------------------------|---||
---------------------------------|----------------------------------|---||



            
            
Suggest correction
Creating personal tab
Creating personal tab
You can edit any tab online and save it as your Personal.

You can edit, replace or remove any tab part or add personal notes – all changes will be seen only by you.

Personal tabs can be accessed anytime from any device, even offline.
Learn more »
Give kudos to tab author, rate the tab!
1 2 3 4 5
comments
print report bad tab
1 comment total.
0 reply
totalxanarchy 212 Sep 18, 2007 02:27 PM

its easier to play this in drop c or cgdg tuning, but this works too i ges. u can make it shorter too which wud make it less long.

guest
Wanna post a correction for this tab? Suggest correction