Oops, an error
Loading. Please wait.

Devour Tab

version 2
version 2

Whole song

Interactive

2,545 views 3 this week
4 commentsread comments
1 2 3 4 5
accurate
x 12
add to favorites
launch autoscroll
font size
0
reset
how to read this tab
guitar tuner
Tab Pro tools
  • play this tab
  • loop segment
  • change instrument
  • show fretboard
  • metronome
×
Best way to learn
"Devour"
Autoscroll
slow
fast
+/-
esc
set tempo
stop
Contributor
Song: Disturbed - Devour (2002).
Album - Believe.
Tabbed by: Joe@Disturbed16

Tuning: Db Ab Db Gb Bb Eb

KEY: X - Palm Mute.

THIS SONG KICKS!!!

INTRO: ( Play this at a pretty fast tempo ).
|--------------------------------------------------------------------|
|--------------------------------------------------------------------|
|---5---4---2-4-5---5----2-4-5---------5---4---2-4-5---2---0---------|
|---------------------------------5----------------------------1-----|
|-2---2---2-------2----2--------3----2---2---2-------0---0---0---2---|
|------------------------------------------------------------------3-|

|--------------------------------------------------------------------|
|--------------------------------------------------------------------|
|---5---4---2-4-5---5----2-4-5---------5---4---2-4-5---2---0-------0-|
|---------------------------------5----------------------------1-----|
|-2---2---2-------2----2--------3----2---2---2-------0---0---0---0---|
|--------------------------------------------------------------------|

VERSE: 

|-----------------|
|-----------------| 
|-----------------|
|---5---4---2-4-5-|   Guitar stops for singer for a bit.
|-2---2---2-------|
|-----------------|
 -X---X---X-------

Here guitar kicks in again.

|---------------------------------|
|---------------------------------|
|---5---4---2-4-5---2---0---------|
|---------------------------1-----| X2 (For the part that stops in the middle
|-2---2---2-------0---0---0---2---|             of the riff).
|-------------------------------3-|
 -X---X---X-------X---X---X-------

|--------------------------------------------------------------------|
|--------------------------------------------------------------------|
|---5---4---2-4-5---5----2-4-5---------5---4---2-4-5---2---0-------0-|
|---------------------------------5----------------------------1-----|
|-2---2---2-------2----2--------3----2---2---2-------0---0---0---0---|
|--------------------------------------------------------------------|
On this part the guitar does not stop.

PRE-CHORUS:

|----------------------------|
|----------------------------|
|----------------------------|
|-9-9-9--9-9-9--9-9-9--7-9-9-|
|-9-9-9--9-9-9--9-9-9--5-7-7-|
|-9-9-9--9-9-9--9-9-9--------|

CHORUS:

|--------------------------------------------------|
|----------------------------7---------------------|
|---------------7--6---------5--7------------------|
|-9-7-5-5-5-3-3-4--4--9-7-5--5--5--5-5-7-7-7-7-7-7-| X2
|-9-7-5-5-5-3-3-4--4--9-7-5--5--5--5-5-7-7-7-7-7-7-|
|-9-7-5-5-5-3-3-------9-7-5--------5-5-7-7-7-7-7-7-|

PRE-VERSE:

|---------------------------------------------|
|---------------------------------------------|
|---5---4---2-4-5---------5---4---2-4-5--2--5-|
|-------------------5--------------------2--5-|
|-2---2---2-------2----2---2---2---------2--5-|
|---------------------------------------------|

REPEAT VERSE X2

REPEAT CHORUS

BRIDGE 1:

|------------------------------|
|------------------------------|
|------------------------------|
|------------------------------| X2
|------------------------------|
|-9--9-9--9-9-9--9-9-9-9-10-10-|

BRIDGE 2:

|------------------------------|
|------------------------------|
|------------------------------|
|-9--9-9--9-9-9--9-9-9-9-10-10-| X8
|-9--9-9--9-9-9--9-9-9-9-10-10-|
|-9--9-9--9-9-9--9-9-9-9-10-10-|

REPEAT CHORUS

OUTRO:

|---------------------------------|
|---------------------------------|
|---5---4---2-4-5---5---2-4-5-----|
|-------------------------------5-| X4   End Abruptly!!!
|-2---2---2-------2---2-------3---|
|---------------------------------|

That's it, enjoy!!!

LYRICS:

VERSE

Still enough 
Although I know you're not begging 
Still as the thoughts running through your mind 
Still enough 
Although I know you're not begging 
Give me a reason to make you mine 

CHORUS

I will devour you 
Take all the pain away 
I cannot stay my hand 
From reaching out so that I can 
Empower you 
For all eternity 
It seems to ease my mind 
To know that you've brought 
Meaning to my life 

VERSE

Had enough 
Although I see you're not running 
Still are the thoughts running through your mind 
Dead to love 
The path that you are now taking 
Show me the reason to make you mine 

REPEAT CHORUS

BRIDGE

Run, to where the smallest ray of light will never find you 
Run, to where you will not need to shield your eyes 
Run, away from all the soulless, heartless fiends who hound you 
Run, away and let your memories go blind, when I 

REPEAT CHORUS

BAND MEMBERS
Singer - David.
Guitar - Dan.
Bass - Fuzz.
Drums - Mike.
comments
print report bad tab
4 comments total. Showing first comments.
0 reply
believeR wrote on January 25 2003, 12:00 am

This...is a kick ass tab...

0 reply
believeR wrote on January 26 2003, 12:00 am

but the chorus is a little off...
the chords go in this order...

Eb|--------------------------|
Bb|--------------------------|
Gb|-11-9-7--2-6--11-9-7--4-6-|
Db|-9--7-5--0-4--9--7-5--2-4-|
Ab|-9--7-5--0-4--9--7-5--2-4-|
Db|-9--7-5--0-4--9--7-5--2-4-|

always willing to help a fellow guitarist!

0 reply
Joe@Disturbed16 wrote on January 28 2003, 12:00 am

Thanks guys for your support, this was my first tab ever posted.
P.S Plz rate this tab i would really apprieciate it! :)

I want to post or [tab]
guest
You may want to rate the tab now too:
select rating
Please do not post tabs as comments. Select "correction" instead!