Oops, an error
Loading. Please wait.

Down With The Sickness Tab

322,368 views 150 this week
33 commentsread comments
1 2 3 4 5
x 46
add to favorites
launch autoscroll
font size
0
reset
how to read this tab
guitar tuner
backing track
0:00
0:00
×
Best way to learn
"Down With The Sickness"
Autoscroll
slow
fast
+/-
esc
set tempo
stop
SONG: DOWN WIT THE SICKNESS
BY: DISTURBED
CD: DOWN WITH THE SICKNESS
INTERPRETED BY: JASON COLLINS


[Intro]

(FIRST DRUMS KICK IN,THEN)

e|-------------------------------------------------------|
B|-------------------------------------------------------|
G|-------------------------------------------------------|
D|----(1)XXXX---XXXXX---XXXX-----------------------------|
A|----(1)XXXX---XXXXX---XXXX-----REPEAT 4X---------------|
D|----(1)XXXX---XXXXX---XXXX-----------------------------|
   X=(PM 1ST FRET)5 STROKES TWICE THEN 4  STROKES ONCE THEN REPEAT
3 MORE X UNTIL HE BREAKS IN WITH " OOO AH AH AH AH"...... THEN-

e|-------------------------------------------------------|
B|-------------------------------------------------------|
G|-------------------------------------------------------|
D|--1--4--1--2--1-----1--4--1--2--1-----1--4--1--1-------|
A|--1--4--1--2--1-----1--4--1--2--1-----1--4--1--1-------|
D|--1--4--1--2--1-----1--4--1--2--1-----1--4--1--1-------|

PLAY THIS 4X AND ON THE 4TH ADD THIS.

E|-----------------------------------------------------------------------|
B|-----------------------------------------------------------------------|
G|-----------------------------------------------------------------------|
D|---------------------------------------------1--2-2-2-2-0--------------|
A|---------------------------------------------1--2-2-2-2-0--------------|
D|---------------------------------------------1--2-2-2-2-0--------------|

WHEN THE CHORUS BREAKS IN... "GET UP YOURE
MUGGIN DOWN WIT THE SICKNESS" PLAY THIS....

e|------------------------------------------------------|
B|------------------------------------------------------|
G|------------------------------------------------------|
D|---0--0--0h1--0--x-----0--0h1--0----------------------|
A|---0--0--0h1--0--x-----0--0h1--0-----REPEAT 4X--------|
D|---0--0--0h1--0--x-----0--0h1--0----------------------|
   REPEAT 4X AND LET LAST OPEN CHORD RING OUT.



************************************

| x  Dead note
| h  Hammer-on

************************************
Suggest correction
comments
print report bad tab
33 comments total. Showing first comments.
0 reply
whitefool86 10 Feb 12, 2002 07:00 PM

yeah pretty close thanx

0 reply
Nothingface_78 1,576 Feb 22, 2002 07:00 PM

Um..alot of this tab is wrong.

tuning: drop db

intro

2-5-2-3-2
2-5-2-3-2
2-5-2-3-2

chorus:

-----------5-5---5-
-------------------5-
2-2-3-2
2-2-3-2
2-2-3-2

explanation: that's the chorus..the 5's are natural harmonics. do the 5's in the same string and don't do the next 5's until you do the other part 1st. i just didn't wanna type it up again.

0 reply
guitarzan 120 Apr 02, 2002 07:00 PM

exactly nothing face. Disturbed plays in Db tuning guys. these are incorrect tabs

guest
You may want to rate the tab now too:
select rating
Wanna post a correction for this tab? Suggest correction