Oops, an error
Loading. Please wait.

Down With The Sickness Tab

288,740 views 972 this week
103 commentsread comments
1 2 3 4 5
x 194
add to favorites
launch autoscroll
font size
0
reset
how to read this tab
guitar tuner
×
Best way to learn
"Down With The Sickness"
Autoscroll
slow
fast
+/-
esc
set tempo
stop
Author
Tuning
  follow
D A D G B E
Disturbed
Down With the Sickness

This sounds right to me. Rate please!

Tuning: ½ step down drop D

Eb|-----------------------------------|
Bb|-----------------------------------|
Gb|-----------------------------------|
Db|-----------------------------------| x3
Ab|--7-10-7-8-7--7-10-7-8-7--7-10-7-8-|
Db|-----------------------------------|
     . .  . . .  . .  . . .  . .  . .

Eb|-------------------------|
Bb|-------------------------|
Gb|-------------------------|
Db|-------------------------|
Ab|--7-10-7-8-7--7-10-7-8-7-|
Db|-------------------------|
    . .  . . .  . .  . . .

"oo ah ah ah ah!"

                                             last time do..
Eb|---------------------------------        |---------------------------------|
Bb|---------------------------------        |---------------------------------|
Gb|---------------------------------        |---------------------------------|
Db|--2-5-2-3-2---2-5-2-3-2---2-5-2-3  x3    |--2-5-2-3-2---2-5-2-3-2--3-3-3-3-|
Ab|--2-5-2-3-2---2-5-2-3-2---2-5-2-3        |--2-5-2-3-2---2-5-2-3-2--3-3-3-3-|
Db|--2-5-2-3-2---2-5-2-3-2---2-5-2-3        |--2-5-2-3-2---2-5-2-3-2--3-3-3-3-|

repeat this twice

Eb|--------------------------------|
Bb|--------------------------------|
Gb|--------------------------------|
Db|--2-2-2-2-2--2-2-2-2-2--2-2-2-2-|  repeat alot
Ab|--2-2-2-2-2--2-2-2-2-2--2-2-2-2-|
Db|--2-2-2-2-2--2-2-2-2-2--2-2-2-2-|
     . . . . .  . . . . .  . . . .

 then                                         repeat 8th time but end on
Eb|-------------------------------         |-----|
Bb|-------------------------------         |-----|
Gb|-------------------------------         |-----|
Db|------------------------------- x7      |--3~-|
Ab|-------------------------------         |--3~-|
Db|--2-5-2-3-2--2-2-2-2-2--2-2-2-2         |--3~-|

[Chorus]
Eb|---------------*-*-----------------------------*---|
Bb|---------------5-5-----------------------------5---|
Gb|-------------------------------------------------5-|
Db|--2--2-2-2-2---------2-2-3-2-0----2--2-2-2-2-------|
Ab|--2--2-2-2-2---------2-2-3-2-0----2--2-2-2-2-------|
Db|--2--2-2-2-2---------2-2-3-2-0----2--2-2-2-2-------|

Eb|---------------*-*-----------------------------*-----------|
Bb|---------------5-5-----------------------------5-*---------|
Gb|-------------------------------------------------5---------|
Db|--2--2-2-2-2---------2-2-3-2-0----2--2-2-2-2--------2------|
Ab|--2--2-2-2-2---------2-2-3-2-0----2--2-2-2-2--------2------|
Db|--2--2-2-2-2---------2-2-3-2-0----2--2-2-2-2--------2--\9--|b

Eb|---------------*-*-----------------------------*---|
Bb|---------------5-5-----------------------------5---|
Gb|-------------------------------------------------5-|
Db|--2--2-2-2-2---------2-2-3-2-0----2--2-2-2-2-------|
Ab|--2--2-2-2-2---------2-2-3-2-0----2--2-2-2-2-------|
Db|--2--2-2-2-2---------2-2-3-2-0----2--2-2-2-2-------|

Eb|---------------*-*-----------------------------*-------------------|
Bb|---------------5-5-----------------------------5-*-----------------|
Gb|-------------------------------------------------5-----------------|
Db|--2--2-2-2-2---------2-2-3-2-0----2--2-2-2-2---------2-2-3-2-0--2~-|
Ab|--2--2-2-2-2---------2-2-3-2-0----2--2-2-2-2---------2-2-3-2-0--2~-|
Db|--2--2-2-2-2---------2-2-3-2-0----2--2-2-2-2---------2-2-3-2-0--2~-|

[Interlude]
Eb|--------------------------------|
Bb|--------------------------------|
Gb|--------------------------------|
Db|--------------------------------|  x3
Ab|------3--4---\7---4--3----------|
Db|--4b---------------------2--4---|

 then
Eb|-----------------------------|
Bb|-----------------------------|
Gb|-----------------------------|
Db|------------------6--5--2--4-|
Ab|------3--4---\7---4--3--2--4-|
Db|--4b--------------------2--4-|

Eb|----------------------|
Bb|----------------------|
Gb|----------------------|
Db|--5--6--4--4---5--6-4-|   repeat many times
Ab|--3--4--4--4---3--4-4-|
Db|--------4--4--------4-|

Eb|---------------------------------|
Bb|---------------------------------|
Gb|---------------------------------|
Db|--4-7-4-5-4---4-7-4-5-4--4-7-4-5-|
Ab|---------------------------------|
Db|---------------------------------|
     . . . . .   . . . . .  . . . .

Eb|----------------------------------|
Bb|----------------------------------|
Gb|----------------------------------|
Db|--4-7-4-5-4---4-7-4-5-4---4-7-4-5-|   repeat a few times
Ab|--4-7-4-5-4---4-7-4-5-4---4-7-4-5-|
Db|--4-7-4-5-4---4-7-4-5-4---4-7-4-5-|

End

************************************

(.) - palm mute
(~) - let note ring
(*) - harmonic
(b) - bend
(\) - slide up

************************************
Suggest correction
comments
print report bad tab
103 comments total. Showing first comments.
+2 reply
CowtownSk8r 50 Mar 16, 2004 07:00 PM

Looking pretty good. The interlude is playd on one string though. If you listen... you can hear him slide on the strings. The right notes, you just need to play them on D.

+1 reply
crazydrivr 93 Jan 09, 2006 04:51 PM

This is a good tab. a couple of things, like the interlude as cowtownsk8r said, one string, and the way i play it the chorus was just a little bit off. overall this is a good tab though.

0 reply
Darkblade24 10 Feb 13, 2006 08:39 PM

good tab. sounds just about right. 4 stars

guest
You may want to rate the tab now too:
select rating
Wanna post a correction for this tab? Suggest correction