Oops, an error
Loading. Please wait.
We have an official Down With The Sickness tab made by UG professional guitarists. Check out the tab »
×
9,235 views 261 this week
5 commentsread comments
1 2 3 4 5
x 8
add to favorites
×
Save as Personal and add changes to this tab that will be seen only by you. Learn more ›
×
You can save this tab as Personal to edit and correct it or add notes. All changes will be seen only by you. Learn more »
launch autoscroll
font size
0
reset
how to read this tab
guitar tuner
backing track
0:00
0:00
edit
Autoscroll
slow
fast
+/-
esc
set tempo
stop
Band- Disturbed
Song- Down With The Sickness
Album- The Sickness

  E5                   F5                   F#5                  C#5
      2 2 x x x x          3 3 x x x x          4 4 4 x x x        11 11 11 x x x

          C5                   G°
    10 10 10 x x x         5 4 x x x x

Gtr I (Db Ab Db Gb Bb Eb) - 'Dan 1'
Gtr II (Eb Ab Db Gb Bb Eb) - 'Dan 2 (fills)'

 Intro
  Moderately Q=90
               N.C.
 4/4
  Gtr I
               PM----------------------------------
  Wx8          S  S S S S S S  S S S S S S  S S S
|------------|------------------------------------|
|------------|------------------------------------|
|------------|------------------------------------|
|------------|------------------------------------|
|------------|-7-10-7-8-7---7-10-7-8-7---7-10-7-8-|
|------------|------------------------------------|


 ----------------------------------|
  S  S S S S S S  S S S S S S  S S S
|------------------------------------|
|------------------------------------|
|------------------------------------|
|------------------------------------|
|-7-10-7-8-7---7-10-7-8-7---7-10-7-8-|
|------------------------------------|


  PM-----------------------------------------------------------|
  S  S S S S S S  S S S S S S  S S S   S  S S S S S S  S S S S S Q
|------------------------------------|------------------------------|
|------------------------------------|------------------------------|
|------------------------------------|------------------------------|
|------------------------------------|------------------------------|
|-7-10-7-8-7---7-10-7-8-7---7-10-7-8-|-7-10-7-8-7---7-10-7-8-7------|
|------------------------------------|------------------------------|


    E5G E5F E5    G E5F E5    G E5F   E5G E5F E5    G E5F E5    G E5F
    S S S S S S S S S S S S S S S S   S S S S S S S S S S S S S S S S
||----------------------------------|----------------------------------|
||o---------------------------------|----------------------------------|
||----------------------------------|----------------------------------|
||----------------------------------|----------------------------------|
||o-2---2---2---2---2---2---2---2---|-2---2---2---2---2---2---2---2----|
||--2h5-2h3-2---2h5-2h3-2---2h5-2h3-|-2h5-2h3-2---2h5-2h3-2---2h5-2h3--|


                                   1.
  E5G E5F E5    G E5F E5    G E5F   E5G E5F E5    G E5F E5    F5
  S S S S S S S S S S S S S S S S   S S S S S S S S S S S S S S S S
|---------------------------------|----------------------------------||
|---------------------------------|---------------------------------o||
|---------------------------------|----------------------------------||
|---------------------------------|----------------------------------||
|-2---2---2---2---2---2---2---2---|-2---2---2---2---2---2---2-3-3-3-o||
|-2h5-2h3-2---2h5-2h3-2---2h5-2h3-|-2h5-2h3-2---2h5-2h3-2---2-3-3-3--||


 2.
  E5G E5F E5    G F5
  S S S S S S S S S S S S S S S S
|---------------------------------||
|---------------------------------||
|---------------------------------||
|---------------------------------||
|-2---2---2---2---3-3-3-3-3-3-3-3-||
|-2h5-2h3-2---2h5-3-3-3-3-3-3-3-3-||


   Verse
    E5
    Gtr I
    PM--------------------------------------------------------------------|
    S S S S S S S S S S S S  S  S  S S   S  S S S S S S S  S  S S S S S S S
||-------------------------------------|-------------------------------------|
||o------------------------------------|-------------------------------------|
||-------------------------------------|-------------------------------------|
||--2-2-2-2-2---2-2-2-2-2----2--2--2-2-|-2--2-2-2-2---2-2--2--2-2---2-2-2-2--|
||o-2-2-2-2-2---2-2-2-2-2----2--2--2-2-|-2--2-2-2-2---2-2--2--2-2---2-2-2-2--|
||--2-2-2-2-2---2-2-2-2-2----2--2--2-2-|-2--2-2-2-2---2-2--2--2-2---2-2-2-2--|
|
|   Gtr II
|   H               E   E   +S  E.       Q.           E   +H
||-------------------------------------|-------------------------------------|
||o-----------------------------0------|-1------------0---(0)----------------|
||----------------------3---(3)--------|-------------------------------------|
||-------------------------------------|-------------------------------------|
||o------------------------------------|-------------------------------------|
||-------------------------------------|-------------------------------------|


  PM------------------------------------
  S S S S S S S S  S  S S S  S  S  S S
|--------------------------------------|
|--------------------------------------|
|--------------------------------------|
|-2-2-2-2-2---2-2--2--2-2----2--2--2-2-|
|-2-2-2-2-2---2-2--2--2-2----2--2--2-2-|
|-2-2-2-2-2---2-2--2--2-2----2--2--2-2-|
|
| H               +E    E   +S  E.
|--------------------------------------|
|-------------------------------0------|
|-----------------------3---(3)--------|
|--------------------------------------|
|--------------------------------------|
|-0---------------(0)------------------|


                               F5N.C.
 ------------------------------|
  S  S S S S S S S  S  S S S S S  S   S
|----------------------------------------|
|----------------------------------------|
|------------------------------------<5>-|
|-2--2-2-2-2---2-2--2--2-2---2-3-<5>-----|
|-2--2-2-2-2---2-2--2--2-2---2-3---------|
|-2--2-2-2-2---2-2--2--2-2---2-3---------|
|
| Q.           E   +H
|----------------------------------------|
|-1------------0---(0)-------------------|
|----------------------------------------|
|----------------------------------------|
|----------------------------------------|
|----------------------------------------|


  E5
  PM----------------------------------------------------------------------|
  S S S S S S S S  S  S S S  S  S  S S   S  S S S S S S S  S  S S S S S S S
|--------------------------------------|------------------------------------|
|--------------------------------------|------------------------------------|
|--------------------------------------|------------------------------------|
|-2-2-2-2-2---2-2--2--2-2----2--2--2-2-|-2--2-2-2-2---2-2--2--2-2---2-2-2-2-|
|-2-2-2-2-2---2-2--2--2-2----2--2--2-2-|-2--2-2-2-2---2-2--2--2-2---2-2-2-2-|
|-2-2-2-2-2---2-2--2--2-2----2--2--2-2-|-2--2-2-2-2---2-2--2--2-2---2-2-2-2-|
|
| H               +E    E   +S  E.       Q.           E   +H
|--------------------------------------|------------------------------------|
|-------------------------------0------|-1------------0---(0)---------------|
|-----------------------3---(3)--------|------------------------------------|
|--------------------------------------|------------------------------------|
|--------------------------------------|------------------------------------|
|-0---------------(0)------------------|------------------------------------|


                                                                      F5
  PM--------------------------------------------------------------|
  S S S S S S S S  S  S S S  S  S  S S   S  S S S S S S S  S  S S S S S S S
|--------------------------------------|------------------------------------|
|--------------------------------------|------------------------------------|
|--------------------------------------|------------------------------------|
|-2-2-2-2-2---2-2--2--2-2----2--2--2-2-|-2--2-2-2-2---2-2--2--2-2---2-3-3-3-|
|-2-2-2-2-2---2-2--2--2-2----2--2--2-2-|-2--2-2-2-2---2-2--2--2-2---2-3-3-3-|
|-2-2-2-2-2---2-2--2--2-2----2--2--2-2-|-2--2-2-2-2---2-2--2--2-2---2-3-3-3-|
|
| H               +E    E   +S  E.       Q.           E   +H
|--------------------------------------|------------------------------------|
|-------------------------------0------|-1------------0---(0)---------------|
|-----------------------3---(3)--------|------------------------------------|
|--------------------------------------|------------------------------------|
|--------------------------------------|------------------------------------|
|-0---------------(0)------------------|------------------------------------|


  N.C.
  S S S S S S S S  S  S S S  S  S  S S   S S S S S S S S  S  S S S S S S S
|--------------------------------------|-----------------------------------|
|--------------------------------------|-----------------------------------|
|--------------------------------------|-----------------------------------|
|--------------------------------------|-----------------------------------|
|--------------------------------------|-----------------------------------|
|-2h5-2h3-2---2-2--2--2-2----2--2--2-2-|-2h5-2h3-2---2-2--2--2-2---2-2-2-2-|
|
| H               +E    E   +S  E.       Q.          E   +H
|--------------------------------------|-----------------------------------|
|-------------------------------0------|-1-----------0---(0)---------------|
|-----------------------3---(3)--------|-----------------------------------|
|--------------------------------------|-----------------------------------|
|--------------------------------------|-----------------------------------|
|-0---------------(0)------------------|-----------------------------------|


  S S S S S S S S  S  S S S  S  S  S S   S S S S S S S S  S  S S S S S  S   S
|--------------------------------------|---------------------------------------|
|--------------------------------------|---------------------------------------|
|--------------------------------------|-----------------------------------<5>-|
|--------------------------------------|-------------------------------<5>-----|
|--------------------------------------|---------------------------------------|
|-2h5-2h3-2---2-2--2--2-2----2--2--2-2-|-2h5-2h3-2---2-2--2--2-2---2-3---------|
|
| H               +E    E   +S  E.       Q.          E   +H
|--------------------------------------|---------------------------------------|
|-------------------------------0------|-1-----------0---(0)-------------------|
|-----------------------3---(3)--------|---------------------------------------|
|--------------------------------------|---------------------------------------|
|--------------------------------------|---------------------------------------|
|-0---------------(0)------------------|---------------------------------------|


  S S S S S S S S  S  S S S  S  S  S S   S S S S S S S S  S  S S S S S S S
|--------------------------------------|-----------------------------------|
|--------------------------------------|-----------------------------------|
|--------------------------------------|-----------------------------------|
|--------------------------------------|-----------------------------------|
|--------------------------------------|-----------------------------------|
|-2h5-2h3-2---2-2--2--2-2----2--2--2-2-|-2h5-2h3-2---2-2--2--2-2---2-2-2-2-|
|
| H               +E    E   +S  E.       Q.          E   +H
|--------------------------------------|-----------------------------------|
|-------------------------------0------|-1-----------0---(0)---------------|
|-----------------------3---(3)--------|-----------------------------------|
|--------------------------------------|-----------------------------------|
|--------------------------------------|-----------------------------------|
|-0---------------(0)------------------|-----------------------------------|


  S S S S S S S S  S  S S S  S  S  S S   S S S S S S S S  S  S S S S S S S
|--------------------------------------|-----------------------------------||
|--------------------------------------|-----------------------------------||
|--------------------------------------|-----------------------------------||
|--------------------------------------|-----------------------------------||
|--------------------------------------|-----------------------------------||
|-2h5-2h3-2---2-2--2--2-2----2--2--2-2-|-2h5-2h3-2---2-2--2--2-2---2-3-3-3-||
|
| H               +E    E   +S  E.       Q.          E   +H
|--------------------------------------|-----------------------------------||
|-------------------------------0------|-1-----------0---(0)---------------||
|-----------------------3---(3)--------|-----------------------------------||
|--------------------------------------|-----------------------------------||
|--------------------------------------|-----------------------------------||
|-0---------------(0)------------------|-----------------------------------||


 Chorus
  E5   F5E5  N.C.    E5    F5E5         F5E5  N.C.    E5    F5E5
  Q  S S S S  S   S  S S S S S S   Q  S S S S  S   S  S S S S S S
|--------------------------------|--------------------------------|
|------------<5>-<5>-------------|------------<5>-----------------|
|--------------------------------|----------------<5>-------------|
|-2--2-3-2-----------2---2-3-2---|-2--2-3-2-----------2---2-3-2---|
|-2--2-3-2-----------2---2-3-2---|-2--2-3-2-----------2---2-3-2---|
|-2--2-3-2-----------2---2-3-2---|-2--2-3-2-----------2---2-3-2---|


       F5E5  N.C.    E5    F5E5         F5E5  N.C.    E5  N.C.
                                                            ~~~
  Q  S S S S  S   S  S S S S S S   Q  S S S S  S   S  S S   Q
|--------------------------------|-----------------------------|
|------------<5>-<5>-------------|------------<5>--------------|
|--------------------------------|----------------<5>----------|
|-2--2-3-2-----------2---2-3-2---|-2--2-3-2-----------2--------|
|-2--2-3-2-----------2---2-3-2---|-2--2-3-2-----------2--------|
|-2--2-3-2-----------2---2-3-2---|-2--2-3-2-----------2---/19--|


  E5   F5E5  N.C.    E5    F5E5         F5E5  N.C.    E5    F5E5
  Q  S S S S  S   S  S S S S S S   Q  S S S S  S   S  S S S S S S
|--------------------------------|--------------------------------|
|------------<5>-<5>-------------|------------<5>-----------------|
|--------------------------------|----------------<5>-------------|
|-2--2-3-2-----------2---2-3-2---|-2--2-3-2-----------2---2-3-2---|
|-2--2-3-2-----------2---2-3-2---|-2--2-3-2-----------2---2-3-2---|
|-2--2-3-2-----------2---2-3-2---|-2--2-3-2-----------2---2-3-2---|


                                  1.
       F5E5  N.C.    E5    F5E5         F5E5  N.C.    E5    F5E5
  Q  S S S S  S   S  S S S S S S   Q  S S S S  S   S  S S S S S S
|--------------------------------|--------------------------------|
|------------<5>-<5>-------------|------------<5>-----------------|
|--------------------------------|----------------<5>-------------|
|-2--2-3-2-----------2---2-3-2---|-2--2-3-2-----------2---2-3-2---|
|-2--2-3-2-----------2---2-3-2---|-2--2-3-2-----------2---2-3-2---|
|-2--2-3-2-----------2---2-3-2---|-2--2-3-2-----------2---2-3-2---|


                               2.
                      N.C.      E5   F5E5  N.C.    E5    F5E5
  W          +H.        Q       Q  S S S S  S   S  S S S S S S
|----------|-----------------||---------------------------------||
|----------|----------------o||------------<5>------------------||
|----------|-----------------||----------------<5>--------------||
|-2--------|-(2)-------------||-2--2-3-2-----------2---2-3-2----||
|-2--------|-(2)------------o||-2--2-3-2-----------2---2-3-2----||
|-2--------|-(2)------/17\---||-2--2-3-2-----------2---2-3-2----||


 Bridge
  N.C.
  Gtr I
  ~                      ~~~~~~~~~
  Q  S S  E  +E   Q   a  E    +Q   S S  E  +E   E  S  S E
|--------------------------|------------------------------|
|--------------------------|------------------------------|
|--------------------------|------------------------------|
|--------------------------|------------------------------|
|--------------------------|----------------------<7>-----|
|-4--x-x-10-(10)-11--11s14-|-(14)--x-x-11-(11)-10--x--x-2-|
|
| Gtr II
| Q  E    E  +E   Q      E    +H            H
|-----------------5--------|------------------------------|
|---------7--(7)---------7-|--(7)-------------------------|
|--------------------------|------------------------------|
|--------------------------|------------------------------|
|--------------------------|------------------------------|
|--------------------------|------------------------------|


  ~                      ~~~~~~~~~
  Q  S S  E  +E   Q   a  E    +Q   S S  E  +E   E   S   S E
|--------------------------|--------------------------------|
|--------------------------|--------------------------------|
|--------------------------|--------------------------------|
|--------------------------|--------------------------------|
|--------------------------|----------------------(<7>)-----|
|-4--x-x-10-(10)-11--11s14-|-(14)--x-x-11-(11)-10---x---x-2-|
|
| Q  E    E  +E   Q      E    +H            H
|-----------------5--------|--------------------------------|
|---------7--(7)---------7-|--(7)---------------------------|
|--------------------------|--------------------------------|
|--------------------------|--------------------------------|
|--------------------------|--------------------------------|
|--------------------------|--------------------------------|


  ~                      ~~~~~~~~~
  Q  S S  E  +E   Q   a  E    +Q   S S  E  +E   E   S   S E
|--------------------------|--------------------------------|
|--------------------------|--------------------------------|
|--------------------------|--------------------------------|
|--------------------------|--------------------------------|
|--------------------------|----------------------(<7>)-----|
|-4--x-x-10-(10)-11--11s14-|-(14)--x-x-11-(11)-10---x---x-2-|
|
| Q  E    E  +E   Q      E    +H            H
|-----------------5--------|--------------------------------|
|---------7--(7)---------7-|--(7)---------------------------|
|--------------------------|--------------------------------|
|--------------------------|--------------------------------|
|--------------------------|--------------------------------|
|--------------------------|--------------------------------|


                                       C#5     C5     E5
  ~                      ~~~~~~~~~
  Q  S S  E  +E   Q   a  E    +Q   S S  E  +E   E S S E
|--------------------------|----------------------------|
|--------------------------|----------------------------|
|--------------------------|----------------------------|
|--------------------------|----------------------------|
|--------------------------|-----------11-(11)-10-x-x-2-|
|-4--x-x-10-(10)-11--11s14-|-(14)--x-x-11-(11)-10-x-x-2-|
|
| Q  E    E  +E   Q      E    +H            H
|-----------------5--------|----------------------------|
|---------7--(7)---------7-|--(7)-----------------------|
|--------------------------|----------------------------|
|--------------------------|----------------------------|
|--------------------------|----------------------------|
|--------------------------|----------------------------|


                              1.,2.,3.
    F#5        C5    C#5   F#5            C5    C#5
                              3/4
    E +E   S S E +E  E S S e   E +E   S S E +E  E  4x
||---------------------------|---------------------||
||o--------------------------|--------------------o||
||-------------5-(5)-6-------|------------5-(5)-6--||
||--4-(4)\-x-x-5-(5)-6-x-x-4-|-4-(4)\-x-x-5-(5)-6--||
||o-4-(4)\-x-x-3-(3)-4-x-x-4-|-4-(4)\-x-x-3-(3)-4-o||
||--4-(4)\-x-x---------x-x-4-|-4-(4)\-x-x----------||


  4.
  F#5        C5    C#5 F#5        C5    C#5 F#5        C5    C#5
 3/4
  E +E   S S E +E  E   E +E   S S E +E  E   E +E   S S E +E  E
|--------------------|--------------------|--------------------|
|--------------------|--------------------|--------------------|
|------------5-(5)-6-|------------5-(5)-6-|------------5-(5)-6-|
|-4-(4)\-x-x-5-(5)-6-|-4-(4)\-x-x-5-(5)-6-|-4-(4)\-x-x-5-(5)-6-|
|-4-(4)\-x-x-3-(3)-4-|-4-(4)\-x-x-3-(3)-4-|-4-(4)\-x-x-3-(3)-4-|
|-4-(4)\-x-x---------|-4-(4)\-x-x---------|-4-(4)\-x-x---------|


    F#5        C5    C#5   F#5            C5    C#5
   4/4                        3/4
    E +E   S S E +E  E S S e   E +E   S S E +E  E  3x
||---------------------------|---------------------||
||o--------------------------|--------------------o||
||-------------5-(5)-6-------|------------5-(5)-6--||
||--4-(4)\-x-x-5-(5)-6-x-x-4-|-4-(4)\-x-x-5-(5)-6--||
||o-4-(4)\-x-x-3-(3)-4-x-x-4-|-4-(4)\-x-x-3-(3)-4-o||
||--4-(4)\-x-x---------x-x-4-|-4-(4)\-x-x----------||


 Outro
  N.C.
 4/4
  PM-------------------------------------
  S  S S  S S S S  S S  S S S S  S S  S
|---------------------------------------|
|---------------------------------------|
|---------------------------------------|
|---------------------------------------|
|-9-12-9-10-9---9-12-9-10-9---9-12-9-10-|
|---------------------------------------|


 ------------------------------------|
  S  S S  S S S S  S S  S S S S  S S  S
|---------------------------------------|
|---------------------------------------|
|---------------------------------------|
|---------------------------------------|
|-9-12-9-10-9---9-12-9-10-9---9-12-9-10-|
|---------------------------------------|


  PM----------------------------------------------------------------|
  S  S S  S S S S  S S  S S S S  S S  S   S  S S  S S S S  S S  S S S Q
|---------------------------------------|--------------------------------|
|---------------------------------------|--------------------------------|
|---------------------------------------|--------------------------------|
|---------------------------------------|--------------------------------|
|-9-12-9-10-9---9-12-9-10-9---9-12-9-10-|-9-12-9-10-9---9-12-9-10-9------|
|---------------------------------------|--------------------------------|


    F#A F#G F#5 A F#G F#5 A F#G     F#A F#G F#5 A F#G F#5   G°
    S S S S E S S S S E S S S S  3x S S S S E S S S S E S S S S
||-------------------------------||------------------------------|
||o-----------------------------o||------------------------------|
||-------------------------------||------------------------------|
||-------------------------------||------------------------------|
||o-4---4---4-4---4---4-4---4---o||-4---4---4-4---4---4-4---4-4--|
||--4h7-4h5-4-4h7-4h5-4-4h7-4h5--||-4h7-4h5-4-4h7-4h5-4-4h5-5-5--|


    F#A F#G F#5 A F#G F#5 A F#G     F#A F#G F#5 A F#G F#5
    S S S S E S S S S E S S S S  3x S S S S E S S S S S S Q
||-------------------------------||--------------------------*|
||o-----------------------------o||--------------------------*|
||-------------------------------||--------------------------*|
||-------------------------------||--------------------------*|
||o-4---4---4-4---4---4-4---4---o||-4---4---4-4---4---4------*|
||--4h7-4h5-4-4h7-4h5-4-4h7-4h5--||-4h7-4h5-4-4h7-4h5-4------*|


Duration Legend
---------------
W - whole; H - half; Q - quarter; E - 8th; S - 16th; T - 32nd; X - 64th; a - acciaccatura
+ - note tied to previous; . - note dotted; .. - note double dotted
Uncapitalized letters represent notes that are staccato (1/2 duration)
Irregular groupings are notated above the duration line
Duration letters will always appear directly above the note/fret number it represents the
duration for.  Duration letters with no fret number below them represent rests.  Multi-
bar rests are notated in the form Wxn, where n is the number of bars to rest for.  Low
melody durations appear below the staff

Tablature Legend
----------------
 h   - hammer-on
 p   - pull-off
 b   - bend
 pb  - pre-bend
 r   - bend release (if no number after the r, then release immediately)
 /\  - slide into or out of (from/to "nowhere")
 s   - legato slide
 S   - shift slide
  - natural harmonic
[n]  - artificial harmonic
n(n) - tapped harmonic
 ~   - vibrato
 tr  - trill
 T   - tap
 TP  - trem. picking
 PM  - palm muting
\n/  - tremolo bar dip; n = amount to dip
 \n  - tremolo bar down
 n/  - tremolo bar up
/n\  - tremolo bar inverted dip
 =   - hold bend; also acts as connecting device for hammers/pulls
 <>  - volume swell (louder/softer)
 x   - on rhythm slash represents muted slash
 o   - on rhythm slash represents single note slash

Misc Legend
-----------
 |  - bar
||  - double bar
||o - repeat start
o|| - repeat end
*|  - double bar (ending)
 :  - bar (freetime)
 $  - Segno
 &  - Coda
Tempo markers -  = BPM(8/16=s8/s16), where s8 = swing 8ths, s16 = swing 16ths

            
            
Suggest correction
Creating personal tab
Creating personal tab
You can edit any tab online and save it as your Personal.

You can edit, replace or remove any tab part or add personal notes – all changes will be seen only by you.

Personal tabs can be accessed anytime from any device, even offline.
Learn more »
comments
print report bad tab
5 comments total. Showing first comments.
0 reply
metaljunkie22 182 Apr 25, 2005 08:00 PM

dude most of this looks like ver 9 tab of down with the sickness

0 reply
aprescott_27 268 Oct 27, 2005 05:30 PM

because both of them are correct

0 reply
aprescott_27 268 Oct 27, 2005 05:30 PM

nice tab, man!

guest
You may want to rate the tab now too:
select rating
Wanna post a correction for this tab? Suggest correction