Oops, an error
Loading. Please wait.

Droppin Plates Tab

version 3
version 3

Whole song

Interactive

1,396 views 6 this week
no commentswrite comment
1 2 3 4 5
please rate
add to favorites
launch autoscroll
font size
0
reset
how to read this tab
guitar tuner
Autoscroll
slow
fast
+/-
esc
set tempo
stop
Help us to improve Ultimate-Guitar.com Take our survey!
×
Contributor
Tuning
C# G# C# F# A# D#
Band: Disturbed
Song: Droppin' Plates
Album: The Sickness

Tuning: Drop C# (C#G#C#F#A#D#)

NOTE: This is the PERFECT intro for this song. Down the bend on the 17th, it's perfect.

Intro
Fig.1
|----------------------------------------------------------------------------|
|----------------------------------------------------------------------------|
|----------------------------------------------------------------------------|
|-0--0------1-0------1-0--------1-0------7-----------------------------------|
|-0--0-0000-1-0-0000-1-0---0000-1-0-0000-7-----------------------------------|
|-0--0-0000-1-0-0000-1-0---0000-1-0-0000-7-----------------------------------|
PM     ....     ....       ....     .... ^ Go straight to Fig.2 after this

Fig.2
|----------------------------------------------------------------------------|
|----------------------------------------------------------------------------|
|----------------------------------------------------------------------------|
|-0--0------1-0------1-0--------1-0------------------------------------------|
|-0--0-0000-1-0-0000-1-0---0000-1-0-0000-------------------------------------|
|-0--0-0000-1-0-0000-1-0---0000-1-0-0000-17brb-------------------------------|
PM     ....     ....       ....     ....

Fig.1
|----------------------------------------------------------------------------|
|----------------------------------------------------------------------------|
|----------------------------------------------------------------------------|
|-0--0------1-0------1-0--------1-0------7-----------------------------------|
|-0--0-0000-1-0-0000-1-0---0000-1-0-0000-7-----------------------------------|
|-0--0-0000-1-0-0000-1-0---0000-1-0-0000-7-----------------------------------|
PM     ....     ....       ....     .... ^ Go to Fig.3 as done previously

Fig.3
|----------------------------------------8-8-8-8-8-8-8-8---------------------|
|----------------------------------------8-8-8-8-8-8-8-8---------------------|
|----------------------------------------------------------------------------|
|-0--0------1-0------1-0--------1-0------------------------------------------|
|-0--0-0000-1-0-0000-1-0---0000-1-0-0000-------------------------------------|
|-0--0-0000-1-0-0000-1-0---0000-1-0-0000-------------------------------------|
PM     ....     ....       ....     ....


Verse
Fig.1
|------------------------------------------||--------------------------------|
|------------------------------------------||--------------------------------|
|------------------------------------------||--------------------------------|
|-8-7~~~~-5-8-7~~~~-8-7~~~~--5~~~-8~~~-10~-||--Repeat2x----------------------|
|-6-5~~~~-3-6-5~~~~-6-5~~~~--5~~~-8~~~-10~-||--------------------------------|
|----------------------------5~~~-8~~~-10~-||--------------------------------|


Chorus
Fig.1
|--------------------------|--------------------------|----------------------|
|--------------------------|--------------------------|----------------------|
|--------------------------|--------------------------|----------------------|
|-1-0-----6--3-2-1-2-3-2-1-|-1-0-----6--5-3-1-3-5-3-1-|-Repeat2x-------------|
|-1-0-6-5-6--3-2-1-2-3-2-1-|-1-0-6-5-6--5-3-1-3-5-3-1-|----------------------|
|-1-0-----6--3-2-1-2-3-2-1-|-1-0-----6--5-3-1-3-5-3-1-|----------------------|
PM           . . . . . . .              . . . . . . .


Verse
Fig.1
|----------------------------------------------------------------------------|
|----------------------------------------------------------------------------|
|----------------------------------------------------------------------------|
|-8-7~~~~-5-8-7~~~~-8-7~~~~--5~~~-8~~~-10~-----------------------------------|
|-6-5~~~~-3-6-5~~~~-6-5~~~~--5~~~-8~~~-10~-----------------------------------|
|----------------------------5~~~-8~~~-10~-----------------------------------|

Fig.2
|----------------------------------------------------------------------------|
|----------------------------------------------------------------------------|
|----------------------------------------------------------------------------|
|-8-7--------------5-8-7--------------8-7--------------5~~~-8~~~-10~---------|
|-6-5-00-0-0-0-0-0-3-6-5-00-0-0-0-0-0-6-5-00-0-0-0-0-0-5~~~-8~~~-10~---------|
|-----00-0-0-0-0-0-------00-0-0-0-0-0-----00-0-0-0-0-0-5~~~-8~~~-10~---------|
PM    .. . . . . .       .. . . . . .     .. . . . . .


Intro
Fig.1
|----------------------------------------------------------------------------|
|----------------------------------------------------------------------------|
|----------------------------------------------------------------------------|
|-0--0------1-0------1-0--------1-0------7-----------------------------------|
|-0--0-0000-1-0-0000-1-0---0000-1-0-0000-7-----------------------------------|
|-0--0-0000-1-0-0000-1-0---0000-1-0-0000-7-----------------------------------|
PM     ....     ....       ....     .... ^ Go straight to Fig.2 after this

Fig.2
|----------------------------------------------------------------------------|
|----------------------------------------------------------------------------|
|----------------------------------------------------------------------------|
|-0--0------1-0------1-0--------1-0------------------------------------------|
|-0--0-0000-1-0-0000-1-0---0000-1-0-0000-------------------------------------|
|-0--0-0000-1-0-0000-1-0---0000-1-0-0000-17brb-------------------------------|
PM     ....     ....       ....     ....

Fig.1
|----------------------------------------------------------------------------|
|----------------------------------------------------------------------------|
|----------------------------------------------------------------------------|
|-0--0------1-0------1-0--------1-0------7-----------------------------------|
|-0--0-0000-1-0-0000-1-0---0000-1-0-0000-7-----------------------------------|
|-0--0-0000-1-0-0000-1-0---0000-1-0-0000-7-----------------------------------|
PM     ....     ....       ....     .... ^ Go to Fig.3 as done previously

Fig.4
|----------------------------------------------------------------------------|
|----------------------------------------------------------------------------|
|----------------------------------------------------------------------------|
|-0--0------1-0------1-0--------1-0~~~~~~~~~~--------------------------------|
|-0--0-0000-1-0-0000-1-0---0000-1-0~~~~~~~~~~--------------------------------|
|-0--0-0000-1-0-0000-1-0---0000-1-0~~~~~~~~~~--------------------------------|
PM     ....     ....       ....     
                                  
                                   
Bridge                                                           
Fig.1   Do this while  still ringing from the above if ya want
|------------------------------||--------------------------------------------|
|------------------------------||--------------------------------------------|
|------------------------------||--------------------------------------------|
|------------------------------||-Repeat4x-----------------------------------|
|------------------------------||--------------------------------------------|
|-0-1-0-1-0-1-0-0-0-0-0-0-0-0--||--------------------------------------------|

Fig.2
|------------------------------||--------------------------------------------|
|------------------------------||--------------------------------------------|
|------------------------------||--------------------------------------------|
|-0-1-0-1-0-1-0-0-0-0-0-0-0-0--||-Repeat-3x-and-then-do-Fig.3---------------|
|-0-1-0-1-0-1-0-0-0-0-0-0-0-0--||--------------------------------------------|
|-0-1-0-1-0-1-0-0-0-0-0-0-0-0--||--------------------------------------------|

Fig.3
|----------------------------------------------------------------------------|
|----------------------------------------------------------------------------|
|----------------------------------------------------------------------------|
|-0-1-0-1-0-1-0-0-0-0-0-0-0-0------------------------------------------------|
|-0-1-0-1-0-1-0-0-0-0-0-0-0-0------------------------------------------------|
|-0-1-0-1-0-1-0-0-0-0-0-0-0-0------------------------------------------------|
PM                      . . .


Chorus
Fig.1
|--------------------------|-------------------------------------------------|
|--------------------------|-------------------------------------------------|
|--------------------------|-------------------------------------------------|
|-1-0-----6--3-2-1-2-3-2-1-|-1-0-----6--5-3-1-3-5-3-1------------------------|
|-1-0-6-5-6--3-2-1-2-3-2-1-|-1-0-6-5-6--5-3-1-3-5-3-1------------------------|
|-1-0-----6--3-2-1-2-3-2-1-|-1-0-----6--5-3-1-3-5-3-1------------------------|
PM           . . . . . . .              . . . . . . .

Fig.2
|--------------------------|-------------------------------------------------|
|--------------------------|-------------------------------------------------|
|--------------------------|-------------------------------------------------|
|-1-0-----6--3-2-1-2-3-2-1-|-1-0-----6--5-3-1-3-5-3-1-0~~~~~~~~~~~~----------|
|-1-0-6-5-6--3-2-1-2-3-2-1-|-1-0-6-5-6--5-3-1-3-5-3-1-0~~~~~~~~~~~~----------|
|-1-0-----6--3-2-1-2-3-2-1-|-1-0-----6--5-3-1-3-5-3-1-0~~~~~~~~~~~~----------|
PM           . . . . . . .              . . . . . . .


Outro
Fig.1   These 8's are the only thing I'm not sure with on this tab
|---------------8-8-8-8-8-8-8-8--||------------------------------------------|
|---------------8-8-8-8-8-8-8-8--||------------------------------------------|
|--------------------------------||------------------------------------------|
|-0--0------1-0------------------||--Repeat3x--------------------------------|
|-0--0-0000-1-0------------------||------------------------------------------|
|-0--0-0000-1-0------------------||------------------------------------------|
PM     ....

Fig.2
|----------------------------------------------------------------------------|
|----------------------------------------------------------------------------|
|----------------------------------------------------------------------------|
|------1-0-------------------------------------------------------------------|
|-0000-1-0-------------------------------------------------------------------|
|-0000-1-0-------------------------------------------------------------------|
PM.... .

| ~    let note ring
| brb  bend, release the bend, bend again
===============================================================================
Suggest correction new What's this?
You can suggest a correction to this tab. Community and Mods will review your correction and vote to approve or reject it.
comments
We did not receive enough feedback on this tab! Please rate:
print report bad tab
1 2 3 4 5
guest
You may want to rate the tab now too:
select rating
Please do not post tabs as comments. Select "correction" instead!