Oops, an error
Loading. Please wait.

Forsaken Bass

version 1
version 1

Whole song

Interactive

3,954 views 1 this week
no commentswrite comment
1 2 3 4 5
1 last vote to show rating
add to favorites
launch autoscroll
font size
0
reset
guitar tuner
×
Best way to learn
"Forsaken"
Autoscroll
slow
fast
+/-
esc
set tempo
stop
Band- Disturbed
Song- Forsaken

Introduction:

G------------------------------------------------------------------------|
D------------------------------------------------------------------------|
A------------------------------------------------------------------------|
D---2-2--3232---2-2--3232---2-2--3232---3-3--5353---5-5--7575--7-7--9797-|

Verse:

G-------------------------------------------------|
D-------------------------------------------------|
A-------------------------------------------------|
D---2-2--3232---3-3--5353---5-5--7575---7-7--9797-|

Pre-chorus:

G-------------------------------------------------------------------|
D-------------------------------------------------------------------|
A-------------------------------------------------------------------|
D---2-2-2-2-2-2-2-2-3-3-3-3-3-3-3-3-5-5-5-5-5-5-5-5-7-7-7-7-9-9-9-9-|

Chorus:

G-------------------------------------------------------------|
D-------------------------------------------------------------|
A--------------------1*---------------0*----------------------|
D-----0*---------------------------------------------5----4-3-|

Post Chorus (only after first time through the chorus):

G------------------------------------------------|
D------------------------------------------------|
A------------------------------------------------|
D---2-2--3232---2-2--3232---2-2--3232---2-2-3232-|
Suggest correction
Give kudos to tab author, rate the tab!
1 2 3 4 5
comments
print report bad tab
guest
You may want to rate the tab now too:
select rating
Wanna post a correction for this tab? Suggest correction