Oops, an error
Loading. Please wait.

God Of The Mind Bass

3,058 views 1 this week
2 commentsread comments
1 2 3 4 5
1 last vote to show rating
add to favorites
launch autoscroll
font size
0
reset
guitar tuner
×
Best way to learn
"God Of The Mind"
Autoscroll
slow
fast
+/-
esc
set tempo
stop
Song: God of the Mind
Band: Disturbed
CD: Return of the Rock Vol. 2
Tabbed by Ben Hoffmann
Forumboarder@cs.com
    
This song is pretty easy, your just really have to listen for timing. 
The guy playing has a 5 string. If you dont have a 5 string, that sucks. 
Because you have to tune down to a low A.

All 3 Intro/verse repeat 2x
G:-----------------------------------------
D:-----------------------------------------
A:--0-2-2-3-0-2-2-3-3/--5/--5/--7----------
A:-----------------------------------------

Chorus/bridge
G:-----------------------------------------
D:-----------------------------------------
A:--24--24--2-4--24--24-2------------------
A:-----------------------------------------

G:-----------------------------------------
D:-----------------------------------------
A:--4--24--24--24--24--5-------------------
A:-----------------------------------------

G:-----------------------------------------
D:-----------------------------------------
A:-2-4--2-4--2-4--2-4--4--5----------------
A:-----------------------------------------
Suggest correction
Give kudos to tab author, rate the tab!
1 2 3 4 5
comments
print report bad tab
2 comments total.
0 reply
Spitfire 30 Nov 27, 2003 07:00 PM

the low A string isn't even used...so why must you tune down?

+1 reply
BeastItUp 31 Jan 27, 2012 04:49 PM

You can use the E string for the intro part

So it would be
G:-----------------------------------------
D:-----------------------------------------
A:-----------------------------------------
E:--0-2-2-3-0-2-2-3-3/--5/--5/--7----------

And if you have a 5 string bass it is easier, because the chorus part

G:-----------------------------------------
D:-----------------------------------------
A:--24--24--2-4--24--24-2------------------
A:-----------------------------------------

Sounds like

G:-----------------------------------------
D:-----------------------------------------
A:-----------------------------------------
E:-----------------------------------------
A:--24--24--2-4--24--24-2------------------

guest
You may want to rate the tab now too:
select rating
Wanna post a correction for this tab? Suggest correction