Oops, an error
Loading. Please wait.
We have an official Haunted tab made by UG professional guitarists. Check out the tab »
×
689 views 3 this week
2 commentsread comments
1 2 3 4 5
x 5
add to favorites
×
Save as Personal and add changes to this tab that will be seen only by you. Learn more ›
×
You can save this tab as Personal to edit and correct it or add notes. All changes will be seen only by you. Learn more »
launch autoscroll
font size
0
reset
guitar tuner
edit
Autoscroll
slow
fast
+/-
esc
set tempo
stop
-----------------------------------------------------------------------------
                             Haunted - Disturbed
-----------------------------------------------------------------------------
Tabbed by: Andu Needle
E-mail: sulfur_in_my_lungs@yahoo.com

Intro:

F|---------------------------------------------------------|
C|---------------------------------------------------------|
G|---------------------------------------------------------|
C|-0-10-11-101010-11---------------------------------------|(x3)

F|---------------------------------------------------------|
C|---------------------------------------------------------|
G|---------------------------------------------------------|
C|-10101010-10101010-10101010-10101010---------------------|

F|---------------------------------------------------------|
C|---------------------------------------------------------|
G|---------------------------------------------------------|
C|-10101010-10101010-10101010-10101010-666-888-------------|

F|---------------------------------------------------------|
C|---------------------------------------------------------|
G|---------------------------------------------------------|
C|-10101010-10101010-10101010-10101010-666-555-------------|

F|---------------------------------------------------------|
C|---------------------------------------------------------|
G|---------------------------------------------------------|
C|-10101010-10101010-10101010-10101010-666-888-------------|

F|---------------------------------------------------------|
C|---------------------------------------------------------|
G|-666666-88-444444-11-------------------------------------|
C|---------------------------------------------------------|

Verse:

You play all this shit twice!

F|---------------------------------------------------------|
C|---------------------------------------------------------|
G|---------------------------------------------------------|
C|-10101010-10101010-10101010-10101010-666-888-------------|

F|---------------------------------------------------------|
C|---------------------------------------------------------|
G|---------------------------------------------------------|
C|-10101010-10101010-10101010-10101010-666-555-------------|

F|---------------------------------------------------------|
C|---------------------------------------------------------|
G|---------------------------------------------------------|
C|-10101010-10101010-10101010-10101010-666-888-------------|

F|---------------------------------------------------------|
C|---------------------------------------------------------|
G|-666666-88-444444-11-------------------------------------|
C|---------------------------------------------------------|

Chorus:

F|---------------------------------------------------------|
C|---------------------------------------------------------|
G|---------------------------------------------------------|
C|-1010101010101010(x2)-55555555(x2)-----------------------|

F|---------------------------------------------------------|
C|---------------------------------------------------------|
G|---------------------------------------------------------|
C|-1010101010101010(x2)-88888888(x2)-----------------------|

Intro part again, but only the bass part and those 4 measures on A#!
Verse 2 is the same as the first one!
The second chorus is the same as the first one!

Bridge:

The bridge is all A#. You can make something out of that!

Verse 3 is the same as the others!
Chorus 3 is the same as the others!

Outro:

F|-----------------------------------------------------------|
C|-----------------------------------------------------------|
G|---1010---99---5---6---5---1---3---------------------------|
C|-0------0----0---0---0---0---0-----------------------------|(x4)

            
            
Suggest correction
Creating personal tab
Creating personal tab
You can edit any tab online and save it as your Personal.

You can edit, replace or remove any tab part or add personal notes – all changes will be seen only by you.

Personal tabs can be accessed anytime from any device, even offline.
Learn more »
comments
print report bad tab
2 comments total.
-1 reply
lethalelefant 93 May 13, 2013 12:38 PM

It is in Dropped Db/D#, not Dropped C. Good effort though.

+1 reply
AnduNeedle 7,013 May 20, 2013 02:33 PM

Dude, the tuning is the less important thing here. As long as the notes are the right ones, the tuning is equal with 0. Maybe there are some exceptions, but still...First of all, learn the notes and second learn how to deal with all the tunings and last but not least, learn music!

guest
You may want to rate the tab now too:
select rating
Wanna post a correction for this tab? Suggest correction