Oops, an error
Loading. Please wait.

Hell Bass Tab

version 1
version 1

Whole song

Interactive

3,159 views 3 this week
no commentswrite comment
1 2 3 4 5
please rate
add to favorites
launch autoscroll
font size
0
reset
guitar tuner
Autoscroll
slow
fast
+/-
esc
set tempo
stop
Help us to improve Ultimate-Guitar.com Take our survey!
×
Author
Difficulty
intermediate
Disturbed - Hell (B-Side track from 10k Fists)
http://www.youtube.com/watch?v=oAA7s2ZCR2k

Made by Murmel.

Intro and line after Chorus:
F:------------------------------------------------------------|
C:------------------------------------------------------------|
G:------------------------------------------------------------|
D:-1311131132-1311131132-464446447--5-1-432-0-----------------| x2


Verse:
F:------------------------------------------------------------|
C:------------------------------------------------------------|
G:------------------------------------------------------------|
D:-1111 1111 11111 11 1111 1111 11----------------------------|	x4
                                                                          (Play the 
in the verse in what order you prefer, it's kind of difficult
                                                                            to place 
spot on on a tab.)
F:------------------------------------------------------------|
C:------------------------------------------------------------|
G:------------------------------------------------------------|
D:-33 33 3333 33 3333 333 3333 33-----------------------------| x4

Pre-Chorus and Chorus:
F:-----------------------------------------------------------------|
C:----------------3-5---------------------2------------------------|
G:-----245-3------------------------245-3---3-2-5-6-7-8------------|
D:-5-2-------1-2------1111-1111-11-----------------------5-1-432-0-|

Bridge:
F:---------------------|
C:---------------------|
G:---------------------|
D:-22 222 22 22 222 22-| x6

Final Chorus:
F:---------------------------------------------------------------------------|
C:----------------3-5----------------------2----------------------------3-5--|
G:-----245-3-------------------------245-3-------------------245-3-----------|
D:-5-2-------1-2------11111-11111-111---------11111-11111-111------1-2-------|

F:--------------------------------------|
C:--------------------------------------|
G:-----------------245-3----------------|
D:-11111-11111-111-------5-1-432-0------|

Outro:
F:------------------------------------------------------------|
C:------------------------------------------------------------|
G:------------------------------------------------------------|
D:-1311131132-1311131132-464446447--5-1-432-0-----------------| x2


Hope you liked my tab.
This is the first one I've ever created in my entire life, I will probably make some adjustments
to it sometime since I put this together rather quick. But to me it's sounds good.

I RECOMMEND THAT YOU PLAY THIS ALONG WITH THE SONG, OR WILL SOUND STRANGE.

^_^

Oh and here's the lyrics for those who wants to sing along.

Burning now I bring you hell
Oh, burning now I bring you hell

Leave me tonight, when the warnings said leave a shudder upon you
Running from all that you've feared in your life
Soul of the night, will a son mislead paint a horror upon you
Marking the moment, displaying in my ghost of a life
That I can't condone the way you left me out in the open
To leave me to die
So how can I, forget the way you led me through the path into heaven
To leave me behind

Now I can't stay behind
Save me, from wreaking my vengeance upon you
Too killing more than I can tell
Burning now I bring you hell
Oh, burning now I bring you hell

Free me tonight, lest the animal caged free a terror upon you
Caught in the moment, engaging in my bloodlust tonight,
Now I can't control my venom's flow
Get back from me demon, or be exorcised

Now I can't stay behind
Save me, from wreaking my vengeance upon you,
Too Killing more than I can tell
Burning now I bring you hell

All my emotion and all my integrity
All that you've taken from me
All my emotion and all my integrity
All that you've taken from me

Now I can't stay behind
Save me, from wreaking my vengeance upon you
Too Killing more than I can tell
Soul of the night, I know now I can't stay behind
Save me, from wreaking my vengeance upon you
Too killing more than I can tell
Burning now I bring you hell
Oh, burning now I bring you hell
Oh, burning now I bring you hell
Suggest correction
Give kudos to tab author, rate the tab!
1 2 3 4 5
comments
print report bad tab
guest
You may want to rate the tab now too:
select rating
Please do not post tabs as comments. Select "correction" instead!