Oops, an error
Loading. Please wait.

Hell Bass Tab

version 2
version 2

Whole song

Interactive

536 views 1 this week
no commentswrite comment
1 2 3 4 5
excellent!
x 4
add to favorites
launch autoscroll
font size
0
reset
guitar tuner
Tab Pro tools
  • play this tab
  • loop segment
  • change instrument
  • show fretboard
  • metronome
×
Best way to learn
"Hell"
Autoscroll
slow
fast
+/-
esc
set tempo
stop
Contributor
Difficulty
Tuning
intermediate
C# G# C# F# A# D#
-----------------------------------------------------------------------------
                             Hell - Disturbed
-----------------------------------------------------------------------------
Tabbed by: Andu Needle
E-mail: sulfur_in_my_lungs@yahoo.com

Intro:

F#|---------------------------------------------------------------|
C#|---------------------------------------------------------------|
G#|-3/6\5---55---3/6\5--------------------------------------------|
C#|-------0----0--------------------------------------------------|

F#|---------------------------------------------------------------|
C#|---------------------------------------------------------------|
G#|-3/6\5---55---3/6\5--5/8\7---77---7---5---5---6---6---88-------|
C#|-------0----0--------------0----0---0---0---0---0---0----0~----|

Verse:

F#|---------------------------------------------------------------|
C#|---------------------------------------------------------------|
G#|---------------------------------------------------------------|
C#|-00-000-0000-00------------------------------------------------|

F#|---------------------------------------------------------------|
C#|---------------------------------------------------------------|
G#|---------------------------------------------------------------|
C#|-000-0000-00---------------------------------------------------|

This is the whole verse. You play the second part til the chorus.

Chorus:

F#|---------------------------------------------------------------|
C#|---------------------------------------------------------------|
G#|---------------------------------------------------------------|
C#|-88888888-00000000---------------------------------------------|

F#|---------------------------------------------------------------|
C#|---------------------------------------------------------------|
G#|---------------------------------------------------------------|
C#|-88888888-0000(x3)---------------------------------------------|

F#|---------------------------------------------------------------|
C#|---------------------------------------------------------------|
G#|---------------------------------------------------------------|
C#|-88888888-00000000---------------------------------------------|

F#|---------------------------------------------------------------|
C#|---------------------------------------------------------------|
G#|----------66666666---------------------------------------------|
C#|-55555555------------------------------------------------------|

Intro again!
Verse 2 is like the first one!
Chorus 2 is like the first one!

Bridge:

F#|---------------------------------------------------------------|
C#|---------------------------------------------------------------|
G#|---------------------------------------------------------------|
C#|-000--0-00-0--0--0-00-0----------------------------------------|(x5)

F#|---------------------------------------------------------------|
C#|---------------------------------------------------------------|
G#|---------------------------------------------------------------|
C#|-000--0-00-0--0--0-00------------------------------------------|

Last chorus:

F#|---------------------------------------------------------------|
C#|---------------------------------------------------------------|
G#|---------------------------------------------------------------|
C#|-88888888-00000000---------------------------------------------|

F#|---------------------------------------------------------------|
C#|---------------------------------------------------------------|
G#|---------------------------------------------------------------|
C#|-88888888-0000(x3)---------------------------------------------|

F#|---------------------------------------------------------------|
C#|---------------------------------------------------------------|
G#|---------------------------------------------------------------|
C#|-88888888-00000000---------------------------------------------|

F#|---------------------------------------------------------------|
C#|---------------------------------------------------------------|
G#|----------66666666---------------------------------------------|
C#|-55555555------------------------------------------------------|

You play all this shit twice!

Ending:

F#|---------------------------------------------------------------|
C#|---------------------------------------------------------------|
G#|-3/6\5---55---3/6\5--------------------------------------------|
C#|-------0----0--------------------------------------------------|

F#|---------------------------------------------------------------|
C#|---------------------------------------------------------------|
G#|-3/6\5---55---3/6\5--5/8\7---77---7---5---5---6---6---88-------|
C#|-------0----0--------------0----0---0---0---0---0---0----0~----|
comments
print report bad tab
I want to post or [tab]
guest
You may want to rate the tab now too:
select rating
Please do not post tabs as comments. Select "correction" instead!