Oops, an error
Loading. Please wait.

Hell Tab

version 2
version 2

Whole song

Interactive

14,339 views 9 this week
6 commentsread comments
1 2 3 4 5
excellent!
x 9
add to favorites
launch autoscroll
font size
0
reset
how to read this tab
guitar tuner
Autoscroll
slow
fast
+/-
esc
set tempo
stop
Help us to improve Ultimate-Guitar.com Take our survey!
×
Author
Difficulty
Tuning
novice
C# G# C# F# A# D#
Artist: Disturbed                                                       \
Album: none =)                                                           \
Song: Hell                                                                \
                                                                           \
My second tab, so have mercy on me :)                                       \
                                                                            |
Tuning: drop-C# (C# G# C# F# A# D#) from low to hight.                      |
                                                                            |
                                                                            |
Intro is mostly some bass-sound and drums, the guitar kicks in at 2:28...   |
-----------------------------------------------------------------------------

2:28 INTRO
D# |--------------------------------------------------------|\
F# |--------------------------------------------------------| \
A# |--------------------------------------------------------|  \
C# |-5/8\7-------7-7---5/8\7-----5/8\7-------7-7---5/8\7----|   \
G# |-3/6\5-0-0-0-5-5-0-3/6\5-----3/6\5-0-0-0-5-5-0-3/6\5----|    \
C# |-------0-0-0-----0-----------------0-0-0-----0----------|     \
PM:        . . .     .                 . . .     .                 \
                                                                   / x2
D# |----------------------|---------------------------------|     /
A# |----------------------|---------------------------------|    /
F# |----------------------|---------------------------------|   /
C# |-7/10\9-------9-9---8-|-7---7---7---7---8---------------|  /
G# |-5/8-\7-0-0-0-7-7-0-7-|-5-0-5-0-6-0-6-0-7-0-------------| /
C# |--------0-0-0-----0---|---0---0---0---0---0-------------|/
PM:         . . .     .       .   .   .   .   .

Fill:
D# |-------|
A# |-------|
F# |-------| Let ring...
C# |---0---|
G# |---0---|
C# |---0---|


Verse:
D# |------------------|
A# |------------------|
F# |------------------|
C# |------------------| x7
G# |-0-0--0--00--0000-|
C# |-0-0--0--00--0000-|
PM:  . .  .  ..  ....

and then
D# |-----------------------------|
A# |-----------------------------|
F# |-----------------------------|
C# |-----------------------------|
G# |-0-0--0--00------------------|
C# |-0-0--0--00---8-3h6-0h6------|
PM:  . .  .  ..   

Continued verse:
D# |---------------------|
A# |---------------------|
F# |---------------------| x3
C# |---------------------|
G# |---------------------|
C# |-0-0--0-00--0000-----|

and then

D# |-----------------------------|
A# |-----------------------------|
F# |-----------------------------|
C# |-----------------------------|
G# |-----------------------------|
C# |-0-0--0----3-5h7-0h7---------|

and then again

D# |-----------------------------|
A# |-----------------------------|
F# |-----------------------------|
C# |-----------------------------|
G# |-----------------------------|
C# |-0-0--0--00-3-5h7-0h7--------|


Chorus: (it's 10's and 11's, not ones and zeroes)
D# |-x--x-x-x-x--x-x-x---x--x-----x-xxxx--xxx--x---|
A# |-11-11111111-111111--11-11----3-3333--333--3---|
F# |-10-10101010-101010--10-10----2-2222--222--2---|
C# |-8--8-8-8-8--8-8-8---8--8-----0-0000--000--0---|
G# |-8--8-8-8-8--8-8-8---8--8-----0-0000--000--0---|
C# |-8--8-8-8-8--8-8-8---8--8-----0-0000--000--0---|

D# |-x--x-x-x-x--x-x-x---x--x---| |-------------|
A# |-11-11111111-111111--11-11--| |-------------|
F# |-10-10101010-101010--10-10--| |-------------|
C# |-8--8-8-8-8--8-8-8---8--8---| |----0000-----| x3 (just the zeroes, NOT the whole chorus! )
G# |-8--8-8-8-8--8-8-8---8--8---| |----0000-----|
C# |-8--8-8-8-8--8-8-8---8--8---| |----0000-----|

D# |-x--x-x-x-x--x-x-x---x--x------x-x-x-x-x-x--x----------| 
A# |-11-11111111-111111--11-11-----3-3-3-3-3-3--3----------| 
F# |-10-10101010-101010--10-10-----2-2-2-2-2-2--2----------| 
C# |-8--8-8-8-8--8-8-8---8--8------0-0-0-0-0-0--0----------| 
G# |-8--8-8-8-8--8-8-8---8--8------0-0-0-0-0-0--0----------| 
C# |-8--8-8-8-8--8-8-8---8--8------0-0-0-0-0-0--0----------| 
                                               /\
                                           let ring just a LITTLE

D# |-x-x-x-x-x-x--------------------------|
A# |-8-8-8-8-8-8---8-8-8-8-8-8-8----------|
F# |-7-7-7-7-7-7---8-8-8-8-8-8-8----------|
C# |-5-5-5-5-5-5---6-6-6-6-6-6-6----------|
G# |-5-5-5-5-5-5---6-6-6-6-6-6-6----------|
C# |-5-5-5-5-5-5--------------------------|


D# |--------------------------------------------------------|
F# |--------------------------------------------------------|
A# |--------------------------------------------------------|
C# |-5/8\7-------7-7---5/8\7-----5/8\7-------7-7---5/8\7----|
G# |-3/6\5-0-0-0-5-5-0-3/6\5-----3/6\5-0-0-0-5-5-0-3/6\5----|
C# |-------0-0-0-----0-----------------0-0-0-----0----------|
PM:        . . .     .                 . . .     .           NOTE: This is the intro again, but with some changes:
                                                                
D# |----------------------|---------------------------------|1. The last note,-8-, is being trown away and replaced 
A# |----------------------|---------------------------------|                 -7-
F# |----------------------|---------------------------------|   with a muted doublezero (-0-).
C# |-7/10\9-------9-9---8-|-7---7---7---7---8---------------|                           (-0-)
G# |-5/8-\7-0-0-0-7-7-0-7-|-5-0-5-0-6-0-6-0-7-0-------------|                           ( . )
C# |--------0-0-0-----0---|---0---0---0---0---0-------------|2. The "intro" is only played once now before going to the 
PM:         . . .     .       .   .   .   .   .                 ringing tripplezeros (-0-)....
                                                                                     (-0-)
                                                                                     (-0-)
D# |----------|
A# |----------|
F# |----------|
C# |----0-----| (let ring until verse2 starts.)
G# |----0-----|
C# |----0-----|


Verse 2, similar to verse 1 but I removed the last "and then again", and some other shit is shorter than in verse 1 :)
D# |------------------|
A# |------------------|
F# |------------------|
C# |------------------| x3
G# |-0-0--0--00--0000-|
C# |-0-0--0--00--0000-|
PM:  . .  .  ..  ....

and then
D# |-----------------------------|
A# |-----------------------------|
F# |-----------------------------|
C# |-----------------------------|
G# |-0-0--0----------------------|
C# |-0-0--0---8-3h6-0h6----------|
PM:  . .  .     

Continued verse:
D# |---------------------|
A# |---------------------|
F# |---------------------| x3
C# |---------------------|
G# |---------------------|
C# |-0-0--0-00--0000-----|

Right before Chorus 2
D# |---------------------|
A# |---------------------|
F# |---------------------| 
C# |---------------------|
G# |---------------------|
C# |-0-0--0--0-3-5h7-0h7-|


Chorus 2:
D# |-x--x-x-x-x--x-x-x---x--x-----x-xxxx--xxx--x---|
A# |-11-11111111-111111--11-11----3-3333--333--3---|
F# |-10-10101010-101010--10-10----2-2222--222--2---|
C# |-8--8-8-8-8--8-8-8---8--8-----0-0000--000--0---|
G# |-8--8-8-8-8--8-8-8---8--8-----0-0000--000--0---|
C# |-8--8-8-8-8--8-8-8---8--8-----0-0000--000--0---|

D# |-x--x-x-x-x--x-x-x---x--x---| |-------------|
A# |-11-11111111-111111--11-11--| |-------------|
F# |-10-10101010-101010--10-10--| |-------------|
C# |-8--8-8-8-8--8-8-8---8--8---| |----0000-----| x3 
G# |-8--8-8-8-8--8-8-8---8--8---| |----0000-----|
C# |-8--8-8-8-8--8-8-8---8--8---| |----0000-----|

D# |-x--x-x-x-x--x-x-x---x--x------x-x-x-x-x-x--x----------| 
A# |-11-11111111-111111--11-11-----3-3-3-3-3-3--3----------| 
F# |-10-10101010-101010--10-10-----2-2-2-2-2-2--2----------| 
C# |-8--8-8-8-8--8-8-8---8--8------0-0-0-0-0-0--0----------| 
G# |-8--8-8-8-8--8-8-8---8--8------0-0-0-0-0-0--0----------| 
C# |-8--8-8-8-8--8-8-8---8--8------0-0-0-0-0-0--0----------| 
                                               /\
                                           let ring just a LITTLE

D# |-x-x-x-x-x-x--------------------------|
A# |-8-8-8-8-8-8---8-8-8-8-8-8-8----------|
F# |-7-7-7-7-7-7---8-8-8-8-8-8-8----------|
C# |-5-5-5-5-5-5---6-6-6-6-6-6-6----------|
G# |-5-5-5-5-5-5---6-6-6-6-6-6-6----------|
C# |-5-5-5-5-5-5--------------------------|


Interlude:
D# |--------b10----------------------b10-------------------|\
A# |-------------------------8-------------------------10--| \
F# |-------------------------7-------------------------10--|  \
C# |-------------------------------------------------------|  / repeat this pattern 
G# |-0-0-0------0---00---0--------0------0---00---0--------| /  four times then end
C# |-0-0-0------0---00---0--------0------0---00---0--------|/   on the thing below...
PM:  . . .      .   ..   .        .      .   ..   . 

I meant this thing :) :
D# |---b10---------------------------|
A# |---------------------------------|
F# |---------------------------------|
C# |---------------------------------|
G# |-0-----0---00--------------------|
C# |-0-----0---00--------------------|
PM:  .     .   ..  |________________| <----- right here comes a slight pause 
                                             before the third Chorus kicks in.

Chorus 3, very similar to Chorus 1 & 2 but some parts are longer and there are some
          muted zeros added:
D# |-x--x-x-x-x--x-x-x---x--x-----x-xxxx--xxx--x---|
A# |-11-11111111-111111--11-11----3-3333--333--3---|
F# |-10-10101010-101010--10-10----2-2222--222--2---|
C# |-8--8-8-8-8--8-8-8---8--8-----0-0000--000--0---|
G# |-8--8-8-8-8--8-8-8---8--8-----0-0000--000--0---|
C# |-8--8-8-8-8--8-8-8---8--8-----0-0000--000--0---|

D# |-x--x-x-x-x--x-x-x---x--x---| |-------------|
A# |-11-11111111-111111--11-11--| |-------------|
F# |-10-10101010-101010--10-10--| |-------------|
C# |-8--8-8-8-8--8-8-8---8--8---| |----0000-----| x3 
G# |-8--8-8-8-8--8-8-8---8--8---| |----0000-----|
C# |-8--8-8-8-8--8-8-8---8--8---| |----0000-----|

D# |-x--x-x-x-x--x-x-x---x--x-----x-xxxx--xxx--x---|
A# |-11-11111111-111111--11-11----3-3333--333--3---|
F# |-10-10101010-101010--10-10----2-2222--222--2---|
C# |-8--8-8-8-8--8-8-8---8--8-----0-0000--000--0---|
G# |-8--8-8-8-8--8-8-8---8--8-----0-0000--000--0---|
C# |-8--8-8-8-8--8-8-8---8--8-----0-0000--000--0---|

D# |-x-x-x-x-x-x--------------------------|
A# |-8-8-8-8-8-8---8-8-8-8-8-8-8----------|
F# |-7-7-7-7-7-7---8-8-8-8-8-8-8----------|
C# |-5-5-5-5-5-5---6-6-6-6-6-6-6----------|
G# |-5-5-5-5-5-5---6-6-6-6-6-6-6----------|
C# |-5-5-5-5-5-5--------------------------|

D# |-x--x-x-x-x--x-x-x---x--x---| 
A# |-11-11111111-111111--11-11--| 
F# |-10-10101010-101010--10-10--| 
C# |-8--8-8-8-8--8-8-8---8--8---| 
G# |-8--8-8-8-8--8-8-8---8--8---| 
C# |-8--8-8-8-8--8-8-8---8--8---| 

D# |--------------------------------------|\
A# |--------------------------------------| \
F# |--------------------------------------|  \
C# |-0--0-0-0-0---0---0-0-0-0---0---0-0---|  / These are the palm-muted 
G# |-0--0-0-0-0---0---0-0-0-0---0---0-0---| /  zeros I was talking about
C# |-0--0-0-0-0---0---0-0-0-0---0---0-0---|/   earlier.
PM:     . . . .       . . . .       . . 

D# |-x--x-x-x-x--x-x-x---x--x---| 
A# |-11-11111111-111111--11-11--| 
F# |-10-10101010-101010--10-10--| 
C# |-8--8-8-8-8--8-8-8---8--8---| 
G# |-8--8-8-8-8--8-8-8---8--8---| 
C# |-8--8-8-8-8--8-8-8---8--8---| 

D# |--------------------------------------|\
A# |--------------------------------------| \
F# |--------------------------------------|  \
C# |-0--0-0-0-0---0---0-0-0-0---0---0-0---|  /  Here they are again.
G# |-0--0-0-0-0---0---0-0-0-0---0---0-0---| /  
C# |-0--0-0-0-0---0---0-0-0-0---0---0-0---|/   
PM:     . . . .       . . . .       . . 

D# |-x--x-x-x-x--x-x-x---x--x---| 
A# |-11-11111111-111111--11-11--| 
F# |-10-10101010-101010--10-10--| 
C# |-8--8-8-8-8--8-8-8---8--8---| 
G# |-8--8-8-8-8--8-8-8---8--8---| 
C# |-8--8-8-8-8--8-8-8---8--8---| 

D# |--------------------------------------|\
A# |--------------------------------------| \
F# |--------------------------------------|  \
C# |-0--0-0-0-0---0---0-0-0-0---0---0-0---|  /  third and last time :)
G# |-0--0-0-0-0---0---0-0-0-0---0---0-0---| /  
C# |-0--0-0-0-0---0---0-0-0-0---0---0-0---|/   
PM:     . . . .       . . . .       . . 

D# |-x-x-x-x-x-x--------------------------|
A# |-8-8-8-8-8-8---8-8-8-8-8-8-8----------|
F# |-7-7-7-7-7-7---8-8-8-8-8-8-8----------|
C# |-5-5-5-5-5-5---6-6-6-6-6-6-6----8\0---|
G# |-5-5-5-5-5-5---6-6-6-6-6-6-6----8\0---|
C# |-5-5-5-5-5-5--------------------8\0---|

Outro, it's the INTRO times twice:
D# |--------------------------------------------------------|\
F# |--------------------------------------------------------| \
A# |--------------------------------------------------------|  \
C# |-5/8\7-------7-7---5/8\7-----5/8\7-------7-7---5/8\7----|   \
G# |-3/6\5-0-0-0-5-5-0-3/6\5-----3/6\5-0-0-0-5-5-0-3/6\5----|    \
C# |-------0-0-0-----0-----------------0-0-0-----0----------|     \
PM:        . . .     .                 . . .     .                 \
                                                                   / x2
D# |----------------------|---------------------------------|     /
A# |----------------------|---------------------------------|    /
F# |----------------------|---------------------------------|   /
C# |-7/10\9-------9-9---8-|-7---7---7---7---8---------------|  /
G# |-5/8-\7-0-0-0-7-7-0-7-|-5-0-5-0-6-0-6-0-7-0-------------| /
C# |--------0-0-0-----0---|---0---0---0---0---0-------------|/
PM:         . . .     .       .   .   .   .   .

End on this:
D# |--------|
A# |--------|
F# |--------|
C# |---0----| LET RING, or else it wont sound good =)
G# |---0----|
C# |---0----|
Suggest correction
comments
print report bad tab
6 comments total. Showing first comments.
+1 reply
swe_fender 87 wrote on December 23 2006, 12:11 pm

The guitar begins at 0:28, NOT as i wrote 2:28. sorry :P

+1 reply
kutlessman18 10 wrote on March 13 2007, 08:04 pm

very nice tab bro. the best version on here. and an awesome song as by a bad@$$ band.

0 reply
Metalgears072 31 wrote on July 1 2007, 10:58 pm

This song is a beastin a$$ song, and 4 ur 2nd tab, u made it work to perfection!!

guest
You may want to rate the tab now too:
select rating
Please do not post tabs as comments. Select "correction" instead!