Oops, an error
Loading. Please wait.

Indestructible Bass Tab

version 1
version 1

Whole song

32,523 views 18 this week
3 commentsread comments
1 2 3 4 5
please rate
add to favorites
launch autoscroll
font size
0
reset
guitar tuner
Autoscroll
slow
fast
+/-
esc
set tempo
stop
Help us to improve Ultimate-Guitar.com Take our survey!
×
Author
Tuning for four string B,D,A,D

Intro(0:34) x2
D|----------------------------------------------|
A|----------------------------------------------|
D|3/555585-563-35-856666-3/555585-563-3/58500030|
B|----------------------------------------------|

Verse(0:54)
|------------------------------------------|
|------------------------------------------|
|------------------------------------------|
|22-222-22-22-22-2-2-22-222-22-22-22-2-2-22|

|-------------------------------------------|
|-------------------------------------------|
|-------------------------------------------|
|222-22-22-22-2-2-22-222-22-22-22-2-2-4~4444|

|----------------------|
|----------------------|
|----------------------|
|10h12p10\53-3333-3332~|

Chorus(1:20)
|-----------------------|
|-----------------------|
|00303500505500606500---|
|--------------------111|

|-----------------------|
|-----------------------|
|00303500505500606500---|
---------------------131|

|-----------------------|
|-----------------------|
|00303500505500606500---|
|--------------------111|

|------------------------|
|------------------------|
|------------------------|
|666666666665-6565-656565|

Intro2(1:41) x1
|----------------------------------------------|
|----------------------------------------------|
|3/555585-563-35-856666-3/555585-563-3/58500030|
|----------------------------------------------|

Verse2(1:50)
|------------------------------------------|
|------------------------------------------|
|------------------------------------------|
|22-222-22-22-22-2-2-22-222-22-22-22-2-2-22|

|-------------------------------------------------------|
|----------------------------------------5--------------|
|-----------------------------------3h5h7-3h5h7---------|
|12\222-22-22-22-2-2-2212\222-22-22------------00-4~4444|
  ^this means 12        ^this means 12

|----------------------|
|----------------------|
|----------------------|
|10h12p10/53-3333-3332~|

Chorus2(2:11)
|-----------------------|
|-----------------------|
|00303500505500606500---|
|--------------------111|

|-----------------------|
|-----------------------|
|00303500505500606500---|
---------------------131|

|-----------------------|
|-----------------------|
|00303500505500606500---|
|--------------------111|

|------------------------|
|------------------------|
|------------------------|
|666666666665-6565-656565|

Bridge(2:38)
|------------------------------------------|
|------------------------------------------|
|-----------------------------------00030--|
|1p0-0-0h10h12\00--1p0-0-0h8h10\00~--------|

Intro3(2:48) x1
|-----------------------------------------|
|-----------------------------------------|
|3/555585-563-35-856666-3/555585-563-3/585|
|-----------------------------------------|

Solo(2:57)
|-----------------------------|
|-----------------------------|
|-----------------------------|
|5-55-5-5-55-556-66-6-6-66-5-1\ 

|----------------------------|
|----------------------------|
|----------------------------|
|5-55-5-5-55-556-66-6-6-8\1/8|

|-----------------------------|
|-----------------------------|
|-----------------------------|
|5-55-5-5-55-556-66-6-6-66-5-1|

|---------------------------|
|---------------------------|
|---------------------------|
|1-11-1-1-11-110-00-0-0-00-0|

Chorus4(3:19)
|-----------------------|
|-----------------------|
|00303500505500606500---|
|--------------------111|

|-----------------------|
|-----------------------|
|00303500505500606500---|
---------------------131|

|-----------------------|
|-----------------------|
|00303500505500606500---|
|--------------------111|

|-------------------------|
|-------------------------|
|-------------------------|
|666666666665-6565-6565665|

Interlude(3:40)
|-----------------------|
|-----------------------|
|0-00-0-00-0-00-0-00-010|
|-----------------------|

|---------------------------------------------------|
|---------------------------------------------------|
|00--0-00--0-00--0-00--------00--0-00--0-00--0-00---|
|--00-0--00-0--00-0--00-0-1-0--00-0--00-0--00-0--111|

|------------------------|
|------------------------|
|------------------------|
|666666666665-6565-656565|

Intro4(4:01)x2
|----------------------------------------------|
|----------------------------------------------|
|3/555585-565-856666-3/555585xxx5xx3/585000305~|
|--------------------------------------------3~|

please email dac316@gmail.com or SOAD316 on UG if any questions or corrections
Suggest correction
Give kudos to tab author, rate the tab!
1 2 3 4 5
comments
print report bad tab
3 comments total.
+1 reply
FBassman 1,012 wrote on January 27 2009, 01:17 pm

this is not even close. I only looked this up to getg ideas for the chorus but now it looks like i'll have to post a tab for this. Firstly this is not in BDAD tuning, i'm not really sure where the B came from. It's Dropped C so CGCF. Were you maybe thinking BADG that would make slightly more sense...

+1 reply
XtractionProces 30 wrote on February 10 2009, 09:13 am

Well he definitely uses a 5 string, look at the video.

0 reply
happygoth 10 wrote on August 28 2010, 04:09 pm

its true Disturbed uses a 5 string. i dont think they ever used a 4 string.

guest
You may want to rate the tab now too:
select rating
Please do not post tabs as comments. Select "correction" instead!