Oops, an error
Loading. Please wait.
We have an official Indestructible tab made by UG professional guitarists. Check out the tab »
×
5,205 views 6 this week
no commentswrite comment
1 2 3 4 5
x 5
add to favorites
launch autoscroll
font size
0
reset
how to read this tab
guitar tuner
backing track
0:00
0:00
Autoscroll
slow
fast
+/-
esc
set tempo
stop
Author
Hey, wassup? This is my very first tab since Weird Al's CNR on February 10th. 
That's almost 10 weeks! Anyway, I'm pretty sure this is 100% correct, or at least pretty close.

pb=pre-bend
r=release bend
b=bend
T=tap
~=vibrato
p=pull off
h=hammer on
/=slide up
\=slide down
.=palm mute

               ~
       T       T
------------------------|
------------------------|
-5pbrb17p5rp3-22p5rp3-3h|
---------------------5--|
------------------------|
------------------------|

   T     T            T     T            T   ~
-----------------------------------------------|
-----------------------------------------------|
h5-9p5p3-9/10\9p5p3h5-9p5p3-9/10\9p5p3h5-9p5p3-|
-----------------------------------------------|
-----------------------------------------------|
-----------------------------------------------|

-----------------------------------|
-----------------------------------|
-----------------------------------|
------------7--8-7-10-8-7--8p7-----|
-10-8-7-10-8-10----------10---10-8-|
-----------------------------------|
  . . .  . .. .. .  . . . .    . .

------------------------|----------------------------------|
------------------------|----------------------------------|
-9br--------------------|-9-10-9-12-9-10-9-12-9-10-9-12-14-|
----10--7-10-7-7--7-----|----------------------------------|
------10--------10-10-7-|----------------------------------|
------------------------|----------------------------------|

----------------------------------------|
-13brp10-13brbr-10--10------------------|
------------------12--12brp10--10h12-10\|
-----------------------------12---------|
----------------------------------------|
----------------------------------------|

       T        T              T     T
--h13-15p13p10-15/16\15p13p10-15p13-15p13p10-------------|
--------------------------------------------h13p10-------|
\9------------------------------------------------h12p10-|
---------------------------------------------------------|
---------------------------------------------------------|
---------------------------------------------------------|

Have fun!
Suggest correction
comments
print report bad tab
guest
You may want to rate the tab now too:
select rating
Wanna post a correction for this tab? Suggest correction