Oops, an error
Loading. Please wait.

Inside The Fire Bass Tab

version 1
version 1
41,903 views 18 this week
5 commentsread comments
1 2 3 4 5
accurate
x 9
add to favorites
launch autoscroll
font size
0
reset
guitar tuner
Autoscroll
slow
fast
+/-
esc
set tempo
stop
Help us to improve Ultimate-Guitar.com Take our survey!
×
Author
Difficulty
Tuning
intermediate
C G C F A D
This is Disturbed Inside the fire from the new album Indestructible.

Intro
F-----------------|
C-----------------|
G-----------------|
C--7/----7777--77-|

Main Riff
F-----------------------------------------------------------------------|
C-----------------------------------------------------------------------|
G------------8----7----------------------8----7------------------8----7-|
C-10-7777777---77---7777-10-7-10-7777777---77---10-7-8-8-7777777---77---|

Verse 1 Pt 1
F-----------------------------------------------------------------------|
C-----------------------------------------------------------------------|
G-----------------------------------------------------------------------|
C-7-7-7-7-7-7-7-7-7-7-7-7-7-7-7-7-7-7-7-7-7-7-7-7-7-7-7-7-7-7-7-7-7-7-7-|

Verse 1 Pt 2
F-----------------------------------------------------------------------|
C-----------------------------------------------------------------------|
G------------8----7----------------------8----7------------------8----7-|
C-10-7777777---77---7777-10-7-10-7777777---77---10-7-8-8-7777777---77---|

Pre-Chorus
F--------------------------------------------------------------------------------------|
C--------------------------------------------------------------------------------------|
G--------------------------------------------------------------------------------------|
C-3-3-3-0-0-0-5-5-5-2-2-2-3-3-3-0-0-0-5-5-5-2-2-2-3-3-3-0-0-0-5-5-5-2-2-2-3-3-3-0-XXXX-|

Chorus
F--------------------------------------------------------------------------|
C--------------------------------------------------------------------------|
G-----10-------8-----1010---------------------10-------8-77777777----------|
C-77-----10-12----77------10-12-10-10-h12--77----10-12------------55555555-|

Main Riff
F-----------------------------------------------------------------------|
C-----------------------------------------------------------------------|
G------------8----7----------------------8----7------------------8----7-|
C-10-7777777---77---7777-10-7-10-7777777---77---10-7-8-8-7777777---77---|

Verse 2 Pt 1
F-----------------------------------------------------------------------|
C-----------------------------------------------------------------------|
G-----------------------------------------------------------------------|
C---------------------------------7-7-7-7-7-7-7-7-7-7-7-7-7-7-7-7-7-7-7-|

Verse 2 Pt 2
F-----------------------------------------------------------------------|
C-----------------------------------------------------------------------|
G------------8----7----------------------8----7------------------8----7-|
C-10-7777777---77---7777-10-7-10-7777777---77---10-7-8-8-7777777---77---|

Pre-Chorus
F--------------------------------------------------------------------------------------|
C--------------------------------------------------------------------------------------|
G--------------------------------------------------------------------------------------|
C-3-3-3-0-0-0-5-5-5-2-2-2-3-3-3-0-0-0-5-5-5-2-2-2-3-3-3-0-0-0-5-5-5-2-2-2-3-3-3-0-XXXX-|

Chorus
F--------------------------------------------------------------------------|
C--------------------------------------------------------------------------|
G-----10-------8-----1010---------------------10-------8-77777777----------|
C-77-----10-12----77------10-12-10-10-h12--77----10-12------------55555555-|

Pre-Solo
F---------------------------------|
C---------------------------------|
G-0000--------------2222----------|
C------202-1111--------------3333-|

Solo Pt1
F--------------------------------------|
C--------------------------------------|
G-0000--00----------2222-2-3-11-1------|
C----------202-1111---------------3333-|

F------------------------------------|
C------------------------------------|
G-0000--00----------2222-2-22-3-5555-|
C----------202-1111------------------|

Solo Pt2
F-------------------------------------------------------------------------------11----11-14-11-|
C---------------10---------------------10---------------------10----10-13-10-13----13----------|
G-13-12-0-10-12----12-10-12-13-0-10-12----12-10-13-12-0-10-12----12----------------------------|
C----------------------------------------------------------------------------------------------|

F-------------------------------------------------------------------------------11----11-------|
C---------------10---------------------10---------------------10----10-13-10-13----13----13-10-|
G-13-12-0-10-12----12-10-12-13-0-10-12----12-10-13-12-0-10-12----12----------------------------|
C----------------------------------------------------------------------------------------------|

F-------------------------------------------------------------------------------11----11-14-11-|
C---------------10---------------------10---------------------10----10-13-10-13----13----------|
G-13-12-0-10-12----12-10-12-13-0-10-12----12-10-13-12-0-10-12----12----------------------------|
C----------------------------------------------------------------------------------------------|
                          
F-------------------------------------------------------------------------------11----11-|
C---------------10---------------------10---------------------10----10-13-10-13----13----|
G-13-12-0-10-12----12-10-12-13-0-10-12----12-10-13-12-0-10-12----12----------------------|
C----------------------------------------------------------------------------------------|

Chorus
F--------------------------------------------------------------------------|
C--------------------------------------------------------------------------|
G-----10-------8-----1010---------------------10-------8-77777777----------|
C-77-----10-12----77------10-12-10-10-h12--77----10-12------------55555555-|

Main Riff
F-----------------------------------------------------------------------|
C-----------------------------------------------------------------------|
G------------8----7----------------------8----7------------------8----7-|
C-10-7777777---77---7777-10-7-10-7777777---77---10-7-8-8-7777777---77---|
Suggest correction new What's this?
You can suggest a correction to this tab. Community and Mods will review your correction and vote to approve or reject it.
comments
print report bad tab
5 comments total. Showing first comments.
+4 reply
Swordacool 112 wrote on August 16 2008, 01:48 pm

Hey, why not try including what the strings should be before people look and double-take saying 'wtf?' XD Other than that, great tab.

+3 reply
Swordacool 112 wrote on August 16 2008, 01:49 pm

oops, didn't see the thing at the top. my apologies XD

0 reply
hightide69 24 wrote on January 24 2010, 12:15 am

good tab thanx

guest
You may want to rate the tab now too:
select rating
Please do not post tabs as comments. Select "correction" instead!