Oops, an error
Loading. Please wait.

Inside The Fire Tab

version 1
146,513 views 24 this week
15 commentsread comments
1 2 3 4 5
x 19
add to favorites
launch autoscroll
font size
0
reset
how to read this tab
guitar tuner
Autoscroll
slow
fast
+/-
esc
set tempo
stop
Help us to improve Ultimate-Guitar.com Take our survey!
×
Author
Difficulty
Tuning
intermediate
C G C F A D
This is the first official single from Disturbed's new album 'Indestructible'
I was wrestling with 2 ways to play the "Intro 2" part of the song.  It can
be played by mostly strumming the G sring open and hitting notes on that string.
But i like my other way better.

I'm fairly confident with this tab, I think i may have missed a tiny part
of the chorus. And the solo sound good for the most part.

Feel free to post comments/corrections

Enjoy!

Tuning: Drop C (C G C F A D)


[Intro]

D|-----------------------------|
A|-----------------------------|
F|-----------------------------|
C|--7\----7-7-7-7-----7-7------|
G|--7\----7-7-7-7-----7-7------|
C|--7\----7-7-7-7-----7-7------|


[Intro 2]

D|--------------------------------------------------------------------------------|
A|--------------------------------------------------------------------------------|
F|--------------------------------------------------------------------------------|
C|--------------------------------------------------------------------------------|
G|--------------8-----7----------------------------8-----7------------------------|
C|--10-7--7-7-7---7-7---7-7-7-7-8-7-7-8h10-7-7-7-7---7-7----7-7-7-7-8-7-7-8h10-7--|


[Verse Palm Muted]

D|--------------------------------------------------------------------------------|
A|--------------------------------------------------------------------------------|
F|--------------------------------------------------------------------------------|
C|------------------------------------------------------------------8-----8/10-7--|
G|--------------8-----7----------------------------8-----7----------8-----8/10-7--|
C|--10-7--7-7-7---7-7---7-7-7-7-8-7-7-8h10-7-7-7-7---7-7----7-7-7-7-8-7-7-8/10-7--|
PM        . . .   . .   . . . .   . .        . . .   . .    . . . .   . .


[Verse 2]

D|--------------------------------------------------------------------------------|
A|--------------------------------------------------------------------------------|
F|--------------------------------------------------------------------------------|
C|------------------------------------------------------------------8-----8/10-7--|
G|--------------8-----7----------------------------8-----7----------8-----8/10-7--|
C|--10-7--7-7-7---7-7---7-7-7-7-8-7-7-8h10-7-7-7-7---7-7----7-7-7-7-8-7-7-8/10-7--|

D|--------------------------------------------------------------------------------|
A|--------------------------------------------------------------------------------|
F|--------------------------------------------------------------------------------|
C|--------------------------------------------------------------------------------|
G|--------------8-----7----------------------------8-----7------------------------|
C|--10-7--7-7-7---7-7---7-7-7-7-8-7-7-8h10-7-7-7-7---7-7----7-7-7-7-8-7-7-8h10-7--|


[Bridge to Chorus]

                                                   (x2)
D|----------------------------------------------------|-----------|
A|----------------------------------------------------|-----------|
F|----------------------------------------------------|-----------|
C|----------------------------------------------------|--x-x-x-x--|
G|----------------------------------------------------|--x-x-x-x--|
C|--3-3-3-0-0-0-5-5-5-2-2-2-3-3-3-0-0-0-5-5-5-2-2-2---|--x-x-x-x--|


[Chorus]

(last measure has a spacey wah effect)
                                           gradual relase palm mute
D|---------------------------------------|-------------------------|
A|---------------------------------------|-------------------------|
F|---------------------------------------|-------------------------|
C|--7-7--12--10-10-12--7-7-7--10-10-12---|--9-9-9-9-9-9-9-9-9-9-9--|
G|--7-7--10--10-10-12--7-7-7--10-10-12---|--7-7-7-7-7-7-7-7-7-7-7--|
C|--7-7------10-10-12--7-7-7--10-10-12---|-------------------------|
PM                                            . . . . . . . . . .


[Bridge]

D|------------------------------------|
A|------------------------------------|
F|------------------------------------|
C|--7-7-7-7-----7-7-7-7-9-9-9-9-------|
G|--7-7-7-7-----7-7-7-7-9-9-9-9-------|
C|--7-7-7-7-----7-7-7-7-9-9-9-9-------|


[Solo Background Riff]

D|---------------------------------------------------------|
A|---------------------------------------------------------|
F|---------------------------------------------------------|
C|-7-7-7-7-7-7-7-0-7-8-7-0-0-9-9-9-9-9-10-8-8-8-8-9-7-0-0--|
G|-7-7-7-7-7-7-7-0-7-8-7-0-0-9-9-9-9-9-10-8-8-8-8-9-7-0-0--|
C|-7-7-7-7-7-7-7-0-7-8-7-0-0-9-9-9-9-9-10-8-8-8-8-9-7-0-0--|
Note:                      ^^
     This is a 10, not 1 and 0


[Solo]

(See my note at the very bottom of the page for info about the "^" symbol)
(PH means pinch harmonic)

          | hold bend  |
D|--------------------------------------------------|
A|--------------------------------------------------|
F|--7^------7^8-7-7-7----7/5-5h7-4~-4h5-3~--<3>-----|
C|--------------------------------------------------|
G|--------------------------------------------------|
C|--------------------------------------------------|
PH                                           *

D|--------------------------------------------------------------|
A|--------------------------------------------------------------|
F|--0-0-0-2-2-2-5-5-5-3-3-3-0-0-2-2-5-5-5-4-4-4-5-5-5-7-7-7-<7>-|
C|--------------------------------------------------------------|
G|--------------------------------------------------------------|
C|--------------------------------------------------------------|
PH                                                           *

D|----------------------------------------------------------------------------------------------------|
A|-13-0-0-0-0-0-0-0-0-0-0-12-0-0-0-0-0-0-0-0-0-0-10-0-0-0-0-0-0-0-0-0-0-8-0-0-0-0-0-13-0-0-0-0-0-12---|
F|----------------------------------------------------------------------------------------------------|
C|----------------------------------------------------------------------------------------------------|
G|----------------------------------------------------------------------------------------------------|
C|----------------------------------------------------------------------------------------------------|

D|----------------------------------------------------------------------------------------------------|
A|-10-0-0-0-0-0-0-0-0-0-0-12-0-0-0-0-0-0-0-0-0-0-10-0-0-0-0-0-0-0-0-0-0-10-0-0-0-0-0-12-0-0-0-0-0-13--|
F|----------------------------------------------------------------------------------------------------|
C|----------------------------------------------------------------------------------------------------|
G|----------------------------------------------------------------------------------------------------|
C|----------------------------------------------------------------------------------------------------|

                (x6)
D|--11p8-10p8------|-------12-------12-------12-------15-17^18-17~----|
A|------------10p8-|-15^16----15^16----15^16----18^19-----------------|
F|-----------------|--------------------------------------------------|
C|-----------------|--------------------------------------------------|
G|-----------------|--------------------------------------------------|
C|-----------------|--------------------------------------------------|


[Post-Solo]

D|-------------------------------------------------------------|
A|-------------------------------------------------------------|
F|-------------------------------------------------------------|
C|--7-8------7-10-7----7-10-7----7-10-7-----7-8------7-10-7----|
G|------10-8--------10--------10--------10------10-8-----------|
C|-------------------------------------------------------------|

D|-----------------------------------------------------|
A|-----------------------------------------------------|
F|-9-7-9/11-9-11/13-11---------------------------------|
C|-----------------------------------------------------|
G|-----------------------------------------------------|
C|-----------------------------------------------------|

D|-------------------------------------------------------------|
A|-------------------------------------------------------------|
F|-------------------------------------------------------------|
C|--7-8------7-10-7----7-10-7----7-10-7-----7-8------7-10-7----|
G|------10-8--------10--------10--------10------10-8-----------|
C|-------------------------------------------------------------|

D|-----------------------------------------------------|
A|-----------------------------------------------------|
F|-9-7-9/11-9-5-7-5------------------------------------|
C|-----------------------------------------------------|
G|-----------------------------------------------------|
C|-----------------------------------------------------|

D|-------------------------------------------------------------|
A|-------------------------------------------------------------|
F|-------------------------------------------------------------|
C|--7-8------7-10-7----7-10-7----7-10-7-----7-8------7-10-7----|
G|------10-8--------10--------10--------10------10-8-----------|
C|-------------------------------------------------------------|

D|-----------------------------------------------------|
A|-----------------------------------------------------|
F|-9-7-9/11-9-11/13-11---------------------------------|
C|-----------------------------------------------------|
G|-----------------------------------------------------|
C|-----------------------------------------------------|

D|-------------------------------------------------------------|
A|-------------------------------------------------------------|
F|-------------------------------------------------------------|
C|--7-8------7-10-7----7-10-7----7-10-7-----7-8------7-10-7----|
G|------10-8--------10--------10--------10------10-8-----------|
C|-------------------------------------------------------------|

D|---------------------------------------------------------------------------------|
A|----------------------------9-11-11/13-11-13/15-13-15/17-15-17/19-24^-24^-24^/---|
F|-9-7-9/11-9-11/13-11-13/15-------------------------------------------------------|
C|---------------------------------------------------------------------------------|
G|---------------------------------------------------------------------------------|
C|---------------------------------------------------------------------------------|

Repeat Chorus and Verses then end with this....


[Ending]

D|----------|
A|----------|
F|----------|
C|--7~------|
G|--7~------|
C|--7~------|


Note: The '^' symbol means bend the string.  If there is a number to the right
      of the '^', 7^8 for example, then bend the string on the 7th fret so that it sounds
      like the 8th fret.  If there is no number to the right, then bend it a little



************************************

| x  Dead note
| h  Hammer-on
| p  Pull-off
| >  Accented note
| /  Slide up
| \  Slide down
| ~  Vibrato

************************************
Suggest correction
comments
print report bad tab
15 comments total. Showing first comments.
0 reply
swe_fender 87 Mar 31, 2008 05:08 PM

Really nice!!! =D

0 reply
Mega-Tallica 1,625 Mar 31, 2008 08:10 PM

honestly, this isn't that accurate. it's decent framework, but not 100 percent.

0 reply
livewire98 135 Mar 31, 2008 11:04 PM

which parts arn't accurate? i'd really like to know please

guest
You may want to rate the tab now too:
select rating
Wanna post a correction for this tab? Suggest correction