Oops, an error
Loading. Please wait.
We have an official Inside The Fire tab made by UG professional guitarists. Check out the tab »
×
222 views 1 this week
1 commentread comment
1 2 3 4 5
2 more votes to show rating
add to favorites
×
Save as Personal and add changes to this tab that will be seen only by you. Learn more ›
×
You can save this tab as Personal to edit and correct it or add notes. All changes will be seen only by you. Learn more »
launch autoscroll
font size
0
reset
transpose
0
reset
display chords
guitar tuner
backing track
0:00
0:00
edit
Autoscroll
slow
fast
+/-
esc
set tempo
stop
Strumming
There is no strumming pattern for this song yet. and get +5 IQ
Most accurate tab out there for this song, I promise, I spent a lot of time on it, and 
is my first tab so be nice. The other tab posted is close, but it misses a lot. The palm 
system i using is "+" for palm mutes "-" for releasing the palm mutes.

Tabbed by: tdopz
Email: Lokelda@hotmail.com
Tuning: Drop C (C G C F A D)

Intro:

D|-------------------------|
A|-------------------------|
F|-------------------------|
C|--7\----7777-----77------|
G|--7\----7777-----77------|
C|--7\----7777-----77------|


For the keyboard part I just use a wah and play.

G|--0-0-12-0-0--000-0-1-0|


Main Riff
x2
D|---------------------------------------------------------------|
A|---------------------------------------------------------------|
F|---------------------------------------------------------------|
C|---------------------------------------------------------------|
G|3-0-0-0-0-8-0-0-7-0-0-0-0-3-0-0-3-0-0-0-0-8-0-0-7-0-0-3-0-1-0-1|
C|---------------------------------------------------------------|


Verse
x2
D|----------------------------------------------------------------|
A|----------------------------------------------------------------|
F|----------------------------------------------------------------|
C|----------------------------------------------------------------|
G|-3-0-0-0-0-8-0-0-7-0-0-0-0-3-0-0-3-0-0-0-0-8-0-0-7-0-0-3-0-1-0-1|
C|----------------------------------------------------------------|
PM - + + + + - + + - + + + + - + + - + + + + - + + - + + - - - - -

Then play Main Riff x2

Pre-chorus bridge

D|-------------------------------------------------------------------|
A|-------------------------------------------------------------------|
F|-------------------------------------------------------------------|
C|-----------------------------------------------------------x-x-x-x-|
G|-----------------------------------------------------------x-x-x-x-|
C|-333-000-555-222-333-000-555-222-333-000-555-222-333-000-5-x-x-x-x-|

Chorus
x2
D|-------------------------------------------------------------------------|
A|-------------------------------------------------------------------------|
F|------12-------10------12------------------12-------10-999999999---------|
C|-7-7--12-10-12-10-7-7--12-10-12-10h12-7-7--12-10-12-10-999999999-5555555-|
G|-7-7--10-10-12-8--7-7--10-10-12-10h12-7-7--10-10-12-8--777777777-5555555-|
C|-7-7-----10-12----7-7-----10-12-10h12-7-7-----10-12--------------5555555-|

Main Riff x2
Verse x2
Main Riff x2
Pre-chorus bridge x1
Chorus x2

Bridge to solo

Guitar 1
D|-----------------------------------------|
A|-----------------------------------------|
F|2222---------99-88-4444----------3-------|
C|2222---------99-88-4444----------3-333---|
G|0000---------77-66-2222----------1-333---|
C|-----------------------------------333---|

Guitar 2
D|-----------------------------------------|
A|-----------------------------------------|
F|2222-222-2---------4444-4/5-3-3-33-------|
C|2222-222-2---22-11-4444-4/5-3-3-33-333---|
G|0000-000-0---22-11-2222-2/3-1-1-11-333---|
C|---------2-0-22-11-----------------333---|

Solo
Guitar 1
D|------------------------------------------------------------------|
A|------------------------------------------------------------------|
F|-8\7b8-7p5-5h7-4-4h5-3-3*----------555-444------555-444-555-7777*-|
C|----------7----------------555-777--------55-77-------------------|
G|------------------------------------------------------------------|
C|------------------------------------------------------------------|
*=pinch harmonic

Guitar 1
tremolo picking
D|-8-00000-7-00000-3-00000-5-00000-8-000-7-000-----|
A|-------------------------------------------------|
F|-------------------------------------------------|
C|-------------------------------------------------|
G|-------------------------------------------------|

Guitar 1
tremolo picking
D|-3-00000-5-00000-3-000-8-000-7-000-10-000-10-000-|
A|-------------------------------------------------|
F|-------------------------------------------------|
C|-------------------------------------------------|
G|-------------------------------------------------|
C|-------------------------------------------------|

Guitar 1
D|-10-8-0000-10-8-00--12p8h10p8---12p8h10p8----12p8h10p8----12p8h10------15-----15-----15-----15/20|
A|-----------------------------10----------10------------10---------15b17--15b17--15b17--15b17-----|
F|-------------------------------------------------------------------------------------------------|
C|-------------------------------------------------------------------------------------------------|
G|-------------------------------------------------------------------------------------------------|
C|-------------------------------------------------------------------------------------------------|

Guitar 2
x2
D|-----------------------------------------------------------------------------|
A|-----------------------------------------------------------------------------|
F|-2222-2-2-2---------4444-4/5-3-3-33------2222-2-2-2---------4444-444-7-77777-|
C|-2222-2-2-2---22-11-4444-4/5-3-3-33-333--2222-2-2-2---22-11-4444-444-7-77777-|
G|-0000-0-0-0---22-11-2222-2/3-1-1-11-333--0000-0-0-0---22-11-2222-222-5-55555-|
C|----------2-0-22-11-----------------333-----------2-0-22-11------------------|

Sweet lick

D|-----------------------------------------------------------------------------------|
A|-----------------------------------------------------------------------------------|
F|----------------------------------------------------------------------11--11-14-11-|
C|-------------10-------------------10-------------------10--10-13-10-13--13---------|
G|13-12-0-10-12--12-10-12-13-0-10-12--12-10-13-12-0-10-12--12------------------------|
C|-----------------------------------------------------------------------------------|

D|-----------------------------------------------------------------------------------|
A|-----------------------------------------------------------------------------------|
F|----------------------------------------------------------------------11--11-------|
C|-------------10-------------------10-------------------10--10-13-10-13--13--13-10--|
G|13-12-0-10-12--12-10-12-13-0-10-12--12-10-13-12-0-10-12--12------------------------|
C|-----------------------------------------------------------------------------------|

D|-----------------------------------------------------------------------------------|
A|-----------------------------------------------------------------------------------|
F|----------------------------------------------------------------------11--11-14-11-|
C|-------------10-------------------10-------------------10--10-13-10-13--13---------|
G|13-12-0-10-12--12-10-12-13-0-10-12--12-10-13-12-0-10-12--12------------------------|
C|-----------------------------------------------------------------------------------|

D|--------------------------------------------------------------|
A|--------------------------------------------------------------|
F|--------------------------------------------------------------|
C|-------------10-------------------10-------------------10--10-|
G|13-12-0-10-12--12-10-12-13-0-10-12--12-10-13-12-0-10-12--12---|
C|--------------------------------------------------------------|

Sweet ass lick
Guitar 1
D|---------------------------------------14--14-17-14-17/20-20-20---|
A|------------------------13--13-16-13-16--16-----------------------|
F|---------11--11-14-11-14--14--------------------------------------|
C|-13-10-13--13-----------------------------------------------------|
G|------------------------------------------------------------------|
C|------------------------------------------------------------------|

Guitar 2
D|-----------------------------------11--11-14-11-14/17-17-17-------|
A|--------------------10--10-13-10-13--13---------------------------|
F|--------8--8-11-8-11--11------------------------------------------|
C|-10-7-10-10-------------------------------------------------------|
G|------------------------------------------------------------------|
C|------------------------------------------------------------------|

Chorus x2
Main riff x4

End with

D|--|
A|--|
F|2-|
C|2-|
G|0-|
C|--|


            
            
Suggest correction
Creating personal tab
Creating personal tab
You can edit any tab online and save it as your Personal.

You can edit, replace or remove any tab part or add personal notes – all changes will be seen only by you.

Personal tabs can be accessed anytime from any device, even offline.
Learn more »
Give kudos to tab author, rate the tab!
1 2 3 4 5
comments
print report bad tab
1 comment total.
0 reply
9.j.smith.7 10 May 15, 2016 09:46 AM

copy and pasted from the guitar tab.... If you want to make a uke chord tab just do it... Honestly why even take the time to put this up

guest
Wanna post a correction for this tab? Suggest correction