Oops, an error
Loading. Please wait.

Inside The Fire Bass Tab

version 2
version 2
9,421 views 9 this week
no commentswrite comment
1 2 3 4 5
accurate
x 3
add to favorites
launch autoscroll
font size
0
reset
guitar tuner
Tab Pro tools
  • play this tab
  • loop segment
  • change instrument
  • show fretboard
  • metronome
Autoscroll
slow
fast
+/-
esc
set tempo
stop
Contributor
Tuning
C G C F A D
#----------------------------------PLEASE NOTE---------------------------------#
#This file is the author's own work and represents their interpretation of the #
#song. You may only use this file for private study, scholarship, or research. #
#------------------------------------------------------------------------------#

INSIDE THE FIRE (Bassline)
As recorded by Disturbed
(From the 2008 Album INDESTRUCTABLE)

Transcribed by DA SQUAK
	

Words by David Draiman Music by Disturbed
Arranged by Distrubed

Gtr I (A D G C F) - 'Bass'
Gtr II (A D G C F) - 'Synth Bass'

  Q=94
 4/4
  Gtr I
   W                            W
|----------------------------|----------------------------|
|----------------------------|----------------------------|
|----------------------------|----------------------------|
|----------------------------|----------------------------|
|----------------------------|----------------------------|
|
| Gtr II
|  S S  S  S Q   E S S S S E    S S  S  S Q   E S S S S E
|------14--------------------|------14--------------------|
|----------------------------|----------------------------|
|-12-0----12-0--12-0-0-0-1-0-|-12-0----12-0--12-0-0-0-1-0-|
|----------------------------|----------------------------|
|----------------------------|----------------------------|


   Q          +Q     H              H             Q     E   S S
|--------------------------------|-------------------------------|
|--------------------------------|-------------------------------|
|-12---------(12)\---------------|-------------------------------|
|--------------------------------|--------------------------0-3--|
|--------------------------------|-------------------------------|
|
|  S S  S  S   Q     E S S S S E    S S  S  S Q   E S S S S E
|------14------------------------|------14-----------------------|
|--------------------------------|-------------------------------|
|-12-0----12---0----12-0-0-0-1-0-|-12-0----12-0--12-0-0-0-1-0----|
|--------------------------------|-------------------------------|
|--------------------------------|-------------------------------|


   S S  S  S Q   H              S S  E    Q  S T T S S S S S S
|----------------------------|---------------------------------||
|----------------------------|---------------2-2-3-2-2-2-0-----||
|----------------------------|-----------------------------3-0-||
|--5-5--5--5-----------------|--5-5----------------------------||
|----------------------------|---------------------------------||
|
|  S S  S  S Q   E S S S S E    S S  S  S Q  H
|------14--------------------|------14-------------------------||
|----------------------------|---------------------------------||
|-12-0----12-0--12-0-0-0-1-0-|-12-0----12-0--------------------||
|----------------------------|---------------------------------||
|----------------------------|---------------------------------||


    $
    S S S S S S S S S S S S S S S S   S S S S S S S S S S S S S S S S
||----------------------------------|-----------------------------------||
||o-----------3-----2---------------|-----------3-----2----------------o||
||--3-0-0-0-0---0-0---0-0-0-0-3-0-0-|-3-0-0-0-0---0-0---0-0-3-0-1-0-1---||
||o---------------------------------|----------------------------------o||
||----------------------------------|-----------------------------------||


    S S S S S S S S S S S S S S S S   S S S S S S S S S S S S S S S S   3x
||----------------------------------|-----------------------------------||
||o---------------------------------|----------------------------------o||
||--3-0-0-0-0---0-0---0-0-0-0---0-0-|---0-0-0-0---0-0---0-0-0-0-1-0-1---||
||o---------------------------------|----------------------------------o||
||----------------------------------|-----------------------------------||


  S S S S S S S S S S S S S S S S
|---------------------------------|
|---------------------------------|
|---------------------------------|
|-1-1-1-------3-3-3-0-0-0-1-1-1---|
|-------3-3-3-------------------3-|


  S S S S S S S S  S S S S S S  S  S    S S S S S S S S S S  Q   E
|------------------------------------|-----------------------------|
|------------------------------------|-----------------------------|
|-----------------/8-8-8-5-5-5-10-10-|-10-7-7-7-8-8-8-5-5-5-10\----|
|-----3-3-3-0-0-0--------------------|-----------------------------|
|-3-3--------------------------------|-----------------------------|


    E E S E.E. S +S  S S S   S S E S E.E. S +E  E
||-------------------------|----------------------|
||o------------------------|----------------------|
||-------------------------|----------------------|
||o-5-5---3s8\-------------|-5-5-5---3s8\---------|
||-------------3-(3)-6-6-6-|--------------3-(3)-1-|


                                                        D.S.
  E E S E.E. S +S  S S S   E S S   S  S  S  S S S S S S S S S
|------------------------|----------------------------------------||
|------------------------|---------------------------------------o||
|------------------------|----------------------------------------||
|-5-5---3s8\-------------|-------/12-12-12-12-0-3-3-3-3-3-3-3----o||
|------------3-(3)-6-6-6-|-5-5-5----------------------------------||


  S S S S H    S S S S   S S S S H    S S S S
|----------------------|----------------------|
|----------------------|----------------------|
|----------------------|-2-2-2-2------1-------|
|-5-5-5-5------5-5-4-4-|----------------1-1-1-|
|----------------------|----------------------|


  S S S S S S S S S S S S S S S S   S S S S S S S S S S S S S S S S
|---------------------------------|---------------------------------|
|---------------------------------|---------------------------------|
|---------------------------------|-2-2-2-2---2-3-1---1---1-1-------|
|-5-5-5-5---5---5-----------------|---------------------------1-1-1-|
|-------------------4---4-5-5-4-4-|---------------------------------|


  S S S S S S S S S S S S S S S S   S S S S S S S S S S S S S S S S
|---------------------------------|------------------------------------|
|---------------------------------|------------------------------------|
|---------------------------------|-2-2-2-2---2-2-2---5---5-5-5-5-5----|
|-5-5-5-5---5---5-----------------|------------------------------------|
|-------------------4---4-5-5-4-4-|------------------------------------|


  S S S S S S S S S S S S S S S S   S S S S S S S S S S S S S S S S
|---------------------------------|---------------------------------|
|---------------------------------|---------------------------------|
|---------------------------------|-2-2-2-2---2-3-1---1---1-1-------|
|-5-5-5-5---5---5-----------------|---------------------------1-1-1-|
|-------------------4---4-5-5-4-4-|---------------------------------|


  S S S S S S S S S S S S S S S S   S S S S S S S S S S S S S S S S
|---------------------------------|------------------------------------|
|---------------------------------|------------------------------------|
|---------------------------------|-2-2-2-2---2-2-2--------------------|
|-5-5-5-5---5---5-----------------|------------------------------------|
|-------------------4---4-5-5-4-4-|-------------------3---3-3-3-3-3----|


   S  S S  S  S  S  S  S S  S  S  S  S  S  S  S
|-----------------------------------------------|
|---------------10---------------------10-------|
|-13-12-0-10-12----12-10-0-13-12-10-12----12-10-|
|-----------------------------------------------|
|-----------------------------------------------|


   S  S S  S  S  S  S  S  S S  S S  S S  S S
|--------------------------------------------|
|---------------10---------------------------|
|-13-12-0-10-12----12-10---------9----9-12-9-|
|------------------------11-8-11---11--------|
|--------------------------------------------|


   S  S S  S  S  S  S  S S  S  S  S  S  S  S  S
|-----------------------------------------------|
|---------------10---------------------10-------|
|-13-12-0-10-12----12-10-0-13-12-10-12----12-10-|
|-----------------------------------------------|
|-----------------------------------------------|


   S  S S  S  S  S  S  S  S S  S S  S S  S S
|--------------------------------------------|
|---------------10---------------------------|
|-13-12-0-10-12----12-10---------------------|
|--------------------------------9-----------|
|------------------------11-8-11---11-8-11-8-|


   S  S S  S  S  S  S  S S  S  S  S  S  S  S  S
|-----------------------------------------------|
|---------------10---------------------10-------|
|-13-12-0-10-12----12-10-0-13-12-10-12----12-10-|
|-----------------------------------------------|
|-----------------------------------------------|


   S  S S  S  S  S  S  S  S S  S S  S S  S S
|--------------------------------------------|
|---------------10---------------------------|
|-13-12-0-10-12----12-10---------9----9-12-9-|
|------------------------11-8-11---11--------|
|--------------------------------------------|


   S  S S  S  S  S  S  S S  S  S  S  S  S  S  S    S  S S  S  S  S  S  S H
|-----------------------------------------------|-----------------------------|
|---------------10---------------------10-------|---------------10----10------|
|-13-12-0-10-12----12-10-0-13-12-10-12----12-10-|-13-12-0-10-12----12---------|
|-----------------------------------------------|-----------------------------|
|-----------------------------------------------|-----------------------------|


 5/4
  W        Q
|---------------|
|---------------|
|---------------|
|---------------|
|---------------|


   4/4
    E E S E.E. S +S  S S S   S S E S E.E. S +E  E
||-------------------------|----------------------|
||o------------------------|----------------------|
||-------------------------|----------------------|
||o-5-5---3s8\-------------|-5-5-5---3s8\---------|
||-------------3-(3)-6-6-6-|--------------3-(3)-1-|


  E E S E.E. S +S  S S S   E S S   S  S  S  S S S S S S S S S
|------------------------|--------------------------------------||
|------------------------|-------------------------------------o||
|------------------------|--------------------------------------||
|-5-5---3s8\-------------|-------/12-12-12-12-0-3-3-3-3-3-3-3--o||
|------------3-(3)-6-6-6-|-5-5-5--------------------------------||


    S S S S S S S S S S S S S S S S   S S S S S S S S S S S S S S S S   4x
||----------------------------------|-----------------------------------||
||o-----------3-----2---------------|-----------3-----2----------------o||
||--3-0-0-0-0---0-0---0-0-0-0-3-0-0-|-3-0-0-0-0---0-0---0-0-3-0-1-0-1---||
||o---------------------------------|----------------------------------o||
||----------------------------------|-----------------------------------||


  W          +W           +W           +W
|----------|------------|------------|--------*|
|----------|------------|------------|--------*|
|-0--------|-(0)--------|-(0)--------|-(0)----*|
|----------|------------|------------|--------*|
|----------|------------|------------|--------*|



Duration Legend
---------------
W - whole; H - half; Q - quarter; E - 8th; S - 16th; T - 32nd; X - 64th; a - acciaccatura
+ - note tied to previous; . - note dotted; .. - note double dotted
Uncapitalized letters represent notes that are staccato (1/2 duration)
Irregular groupings are notated above the duration line
Duration letters will always appear directly above the note/fret number it represents the
duration for.  Duration letters with no fret number below them represent rests.  Multi-
bar rests are notated in the form Wxn, where n is the number of bars to rest for.  Low
melody durations appear below the staff

Tablature Legend
----------------
 h   - hammer-on
 p   - pull-off
 b   - bend
 pb  - pre-bend
 r   - bend release (if no number after the r, then release immediately)
 /\  - slide into or out of (from/to "nowhere")
 s   - legato slide
 S   - shift slide
 - natural harmonic
[n]  - artificial harmonic
n(n) - tapped harmonic
 ~   - vibrato
 tr  - trill
 T   - tap
 TP  - trem. picking
 PM  - palm muting
\n/  - tremolo bar dip; n = amount to dip
 \n  - tremolo bar down
 n/  - tremolo bar up
/n\  - tremolo bar inverted dip
 =   - hold bend; also acts as connecting device for hammers/pulls
 <> - volume swell (louder/softer)
 x   - on rhythm slash represents muted slash
 o   - on rhythm slash represents single note slash

Misc Legend
-----------
 |  - bar
||  - double bar
||o - repeat start
o|| - repeat end
*|  - double bar (ending)
 :  - bar (freetime)
 $  - Segno
 &  - Coda
Tempo markers -  = BPM(8/16=s8/s16), where s8 = swing 8ths, s16 = swing 16ths

comments
We did not receive enough feedback on this tab! Please rate:
print report bad tab
1 2 3 4 5
I want to post or [tab]
guest
You may want to rate the tab now too:
select rating
Please do not post tabs as comments. Select "correction" instead!