Oops, an error
Loading. Please wait.

Inside The Fire Tab

version 4
194,597 views 123 this week
57 commentsread comments
1 2 3 4 5
excellent!
x 96
add to favorites
launch autoscroll
font size
0
reset
how to read this tab
guitar tuner
Autoscroll
slow
fast
+/-
esc
set tempo
stop
Help us to improve Ultimate-Guitar.com Take our survey!
×
Author
Tuning
C G C F A D
Most accurate tab out there for this song, I promise, I spent a lot of time on it, and 
is my first tab so be nice. The other tab posted is close, but it misses a lot. The palm 
system i using is "+" for palm mutes "-" for releasing the palm mutes.

Tabbed by: tdopz
Email: Lokelda@hotmail.com
Tuning: Drop C (C G C F A D)

[Intro]

D|-------------------------|
A|-------------------------|
F|-------------------------|
C|--7\----7777-----77------|
G|--7\----7777-----77------|
C|--7\----7777-----77------|


For the keyboard part I just use a wah and play.

D|-------------------------|
A|-------------------------|
F|-------------------------|
C|-------------------------|
G|--0-0-12-0-0--000-0-1-0--|
C|-------------------------|


Main Riff
x2
D|---------------------------------------------------------------|
A|---------------------------------------------------------------|
F|---------------------------------------------------------------|
C|---------------------------------------------------------------|
G|3-0-0-0-0-8-0-0-7-0-0-0-0-3-0-0-3-0-0-0-0-8-0-0-7-0-0-3-0-1-0-1|
C|---------------------------------------------------------------|


[Verse]

x2
D|----------------------------------------------------------------|
A|----------------------------------------------------------------|
F|----------------------------------------------------------------|
C|----------------------------------------------------------------|
G|-3-0-0-0-0-8-0-0-7-0-0-0-0-3-0-0-3-0-0-0-0-8-0-0-7-0-0-3-0-1-0-1|
C|----------------------------------------------------------------|
PM - + + + + - + + - + + + + - + + - + + + + - + + - + + - - - - -

Then play Main Riff x2

Pre-chorus bridge

D|-------------------------------------------------------------------|
A|-------------------------------------------------------------------|
F|-------------------------------------------------------------------|
C|-----------------------------------------------------------x-x-x-x-|
G|-----------------------------------------------------------x-x-x-x-|
C|-333-000-555-222-333-000-555-222-333-000-555-222-333-000-5-x-x-x-x-|


[Chorus]

x2
D|-------------------------------------------------------------------------|
A|-------------------------------------------------------------------------|
F|------12-------10------12------------------12-------10-999999999---------|
C|-7-7--12-10-12-10-7-7--12-10-12-10h12-7-7--12-10-12-10-999999999-5555555-|
G|-7-7--10-10-12-8--7-7--10-10-12-10h12-7-7--10-10-12-8--777777777-5555555-|
C|-7-7-----10-12----7-7-----10-12-10h12-7-7-----10-12--------------5555555-|

Main Riff x2
Verse x2
Main Riff x2
Pre-chorus bridge x1
Chorus x2

Bridge to solo

Guitar 1
D|-----------------------------------------|
A|-----------------------------------------|
F|2222---------99-88-4444----------3-------|
C|2222---------99-88-4444----------3-333---|
G|0000---------77-66-2222----------1-333---|
C|-----------------------------------333---|

Guitar 2
D|-----------------------------------------|
A|-----------------------------------------|
F|2222-222-2---------4444-4/5-3-3-33-------|
C|2222-222-2---22-11-4444-4/5-3-3-33-333---|
G|0000-000-0---22-11-2222-2/3-1-1-11-333---|
C|---------2-0-22-11-----------------333---|


[Solo]

Guitar 1
D|------------------------------------------------------------------|
A|------------------------------------------------------------------|
F|-8\7b8-7p5-5h7-4-4h5-3-3*----------555-444------555-444-555-7777*-|
C|----------7----------------555-777--------55-77-------------------|
G|------------------------------------------------------------------|
C|------------------------------------------------------------------|
*=pinch harmonic

Guitar 1
tremolo picking
D|-8-00000-7-00000-3-00000-5-00000-8-000-7-000-----|
A|-------------------------------------------------|
F|-------------------------------------------------|
C|-------------------------------------------------|
G|-------------------------------------------------|
C|-------------------------------------------------|

Guitar 1
tremolo picking
D|-3-00000-5-00000-3-000-8-000-7-000-10-000-10-000-|
A|-------------------------------------------------|
F|-------------------------------------------------|
C|-------------------------------------------------|
G|-------------------------------------------------|
C|-------------------------------------------------|

Guitar 1
D|-10-8-0000-10-8-00--12p8h10p8---12p8h10p8----12p8h10p8----12p8h10------15-----15-----15-----15/20|
A|-----------------------------10----------10------------10---------15b17--15b17--15b17--15b17-----|
F|-------------------------------------------------------------------------------------------------|
C|-------------------------------------------------------------------------------------------------|
G|-------------------------------------------------------------------------------------------------|
C|-------------------------------------------------------------------------------------------------|

Guitar 2
x2
D|-----------------------------------------------------------------------------|
A|-----------------------------------------------------------------------------|
F|-2222-2-2-2---------4444-4/5-3-3-33------2222-2-2-2---------4444-444-7-77777-|
C|-2222-2-2-2---22-11-4444-4/5-3-3-33-333--2222-2-2-2---22-11-4444-444-7-77777-|
G|-0000-0-0-0---22-11-2222-2/3-1-1-11-333--0000-0-0-0---22-11-2222-222-5-55555-|
C|----------2-0-22-11-----------------333-----------2-0-22-11------------------|

Sweet lick

D|-----------------------------------------------------------------------------------|
A|-----------------------------------------------------------------------------------|
F|----------------------------------------------------------------------11--11-14-11-|
C|-------------10-------------------10-------------------10--10-13-10-13--13---------|
G|13-12-0-10-12--12-10-12-13-0-10-12--12-10-13-12-0-10-12--12------------------------|
C|-----------------------------------------------------------------------------------|

D|-----------------------------------------------------------------------------------|
A|-----------------------------------------------------------------------------------|
F|----------------------------------------------------------------------11--11-------|
C|-------------10-------------------10-------------------10--10-13-10-13--13--13-10--|
G|13-12-0-10-12--12-10-12-13-0-10-12--12-10-13-12-0-10-12--12------------------------|
C|-----------------------------------------------------------------------------------|

D|-----------------------------------------------------------------------------------|
A|-----------------------------------------------------------------------------------|
F|----------------------------------------------------------------------11--11-14-11-|
C|-------------10-------------------10-------------------10--10-13-10-13--13---------|
G|13-12-0-10-12--12-10-12-13-0-10-12--12-10-13-12-0-10-12--12------------------------|
C|-----------------------------------------------------------------------------------|

D|--------------------------------------------------------------|
A|--------------------------------------------------------------|
F|--------------------------------------------------------------|
C|-------------10-------------------10-------------------10--10-|
G|13-12-0-10-12--12-10-12-13-0-10-12--12-10-13-12-0-10-12--12---|
C|--------------------------------------------------------------|

Sweet ass lick
Guitar 1
D|---------------------------------------14--14-17-14-17/20-20-20---|
A|------------------------13--13-16-13-16--16-----------------------|
F|---------11--11-14-11-14--14--------------------------------------|
C|-13-10-13--13-----------------------------------------------------|
G|------------------------------------------------------------------|
C|------------------------------------------------------------------|

Guitar 2
D|-----------------------------------11--11-14-11-14/17-17-17-------|
A|--------------------10--10-13-10-13--13---------------------------|
F|--------8--8-11-8-11--11------------------------------------------|
C|-10-7-10-10-------------------------------------------------------|
G|------------------------------------------------------------------|
C|------------------------------------------------------------------|

Chorus x2
Main riff x4

End with

D|--|
A|--|
F|2-|
C|2-|
G|0-|
C|--|


************************************

| x  Dead note
| h  Hammer-on
| p  Pull-off
| b  Bend
| /  Slide up
| \  Slide down

************************************
Suggest correction
comments
print report bad tab
57 comments total. Showing first comments.
+1 reply
tdopz 61 wrote on April 26 2008, 05:07 pm

after careful consider I have decided that the end of the second part of what I have called the 'sweet lick' definitely ends like this(i only changed one note really)



D|------------------------------------------|
A|------------------------------------------|
F|----------------------------11------------|
C|-------------10--10-13-10-13--13-10-13-10-|
G|13-12-0-10-12--12-------------------------|
C|------------------------------------------|

+1 reply
livewire98 135 wrote on May 5 2008, 06:09 pm

amazing job! 5*

+8 reply
poc2112 20 wrote on May 6 2008, 09:52 pm

I don't think the main riff is played on the open G string... I think Dan rather playes it on the 7th fret of the C string... It sounds exactly the same, only not the same string. Anyway tab looks ****in accurate man... good job.

DISTURBED!!!

guest
You may want to rate the tab now too:
select rating
Wanna post a correction for this tab? Suggest correction