Oops, an error
Loading. Please wait.

Inside The Fire Tab

version 5
10,311 views 6 this week
5 commentsread comments
1 2 3 4 5
worth learning
x 9
add to favorites
launch autoscroll
font size
0
reset
how to read this tab
guitar tuner
Autoscroll
slow
fast
+/-
esc
set tempo
stop
Help us to improve Ultimate-Guitar.com Take our survey!
×
Author
Difficulty
tewells28 506
intermediate
-------------------------------------------------------------------------------
                             Inside The Fire- Disturbed
----------------------------------------------------------------------------
Tabbed by:TW
Email:

Tuning:C,G,C,F,A,D
 5 String Bass intro tuning:A,D,G,C,F

   Intro arranged for Bass

F|----------14----------------------------------------------------------------|
C|----------------------------------------------------------------------------|
G|--12--0------12--0---12---0--0---0---1---1----------------------------------|
D|----------------------------------------------------------------------------|
A|----------------------------------------------------------------------------|

  GTR 1 W/Dist and Filter Effect...this repeats
e|-----------------------------------------------------------------------------|
B|-----------------------------------------------------------------------------|
G|-----------------------------------------------------------------------------|
D|--7-----(7)\-----------------------------------------------------------------|
A|--7-----(7)\-----------------------------------------------------------------|
E|--7-----(7)\-----------------------------------------------------------------|

   GTR 2
e|----------------------------------------------------------------------------|
B|----------------------------------------------------------------------------|
G|----------------------------------------------------------------------------|
D|----------------------------------------------------------------------------|
A|------------8-----7------------8------7----------------------8-------7------|
E|-10-7-7-7-7---7-7---10-7-7-7-7----7-7----10-10-10-7--7--7--7---7--7---------|

e|----------------------------------------------------------------------------|
B|----------------------------------------------------------------------------|
G|----------------------------------------------------------------------------|
D|----------------------------------------------------------------------------|
A|----8-------7-----------8-----7---------------------------------------------|
E|--7----7-7-----10-7-7-7---7-7-----------------------------------------------|

   Ha ha ha ha ha
e|----------------------------------------------------------------------------|
B|----------------------------------------------------------------------------|
G|----------------------------------------------------------------------------|
D|----------------------------------------------------------------------------|
A|------------8-----7---------------------------8-----7-----------------------|
E|-10-7-7-7-7---7-7---7-7-7-7-10-7-7-10-7-7-7-7---7-7---7-10-7-8-7-8----------|

   Verse..P.M .....And Repeat Riff
e|----------------------------------------------------------------------------|
B|----------------------------------------------------------------------------|
G|----------------------------------------------------------------------------|
D|----------------------------------------------------------------------------|
A|------------8-----7---------10-----10-7------8-----7-----10---8-7-8---------|
E|-10-7-7-7-7---7-7---7-7-7-7-10-7-7-10-7-7-7-7--7-7---7-7-10-7-8-7-8---------|

   Pre-Chorus
   Devin   Lies beyond.........
e|----------------------------------------------------------------------------|
B|----------------------------------------------------------------------------|
G|----------------------------------------------------------------------------|
D|----------------------------------------------------------------------------|
A|----------------------------------------------------------------------------|
E|-3-3-3-0-0-0-5-5-5-2-2-2-3-3-3-0--0-0-5-5-5-2-2-2-3-3-3-0-0-0-5-5-5-2-2-2---|


e|----------------------------------------------------------------------------|
B|----------------------------------------------------------------------------|
G|----------------------------------------------------------------------------|
D|-----------------X-X-X------------------------------------------------------|
A|-----------------X-X-X------------------------------------------------------|
E|--3-3-3-0-0-0-5--X-X-X------------------------------------------------------|

   Chorus
Give your
soul...........      Repeat 1 more time end on E5 w/wah
e|----------------------------------------------------------------------------|
B|----------------------------------------------------------------------------|
G|----------------------------------------------------------------------------|
D|-7--7-----12--5--7--10--10--10----7--7-7-----12--5--7--5----------9---------|
A|-7--7--x--10--3--5--8---8---8-----7--7-7--x--10--3--5--3----------7----5----|
E|-7--7--x--------------------------7--7-7--x----------------------------5----|

e|----------------------------------------------------------------------------|
B|----------------------------------------------------------------------------|
G|----------------------------------------------------------------------------|
D|----------------4--4/5--3---------------------------------------------------|
A|--7----2-2-1-1--2--2/3--1--3-3-3--------------------------------------------|
E|--7----2-2-1-1-------------3-3-3--------------------------------------------|

   Guitar Solo GTR1 W/effects
e|----------------------------------------------------------------------------|
B|----------------------------------------------------------------------------|
G|--7b-(7)-7-7-7-7-7--7h5-----5--7---4v---4--4--5--3--3ph---------------------|
D|------------------------7---------------------------------------------------|
A|----------------------------------------------------------------------------|
E|----------------------------------------------------------------------------|
   Guitar Solo RHY GTR 2 This Is played over lead                                  End RHY Fig
e|----------------------------------------------------------------------------|
B|----------------------------------------------------------------------------|
G|----------------------------------------------------------------------------|
D|----------------------4--4--5-3----------------------------4----7-----------|
A|--7---1--1-2-2--1-1---2--2--3-1--3-3-3--7--1-1-2--2--1--1--2----5-----------|
E|--7---1--1-2-2--1-1--------------3-3-3--7--1-1-2--2--1--1-------------------|

e|---------------------------------------------------------------------0-0----|
B|----------------------------------------------------------------------------|
G|---------------5-5-5-4-4-4----------5-5-5-4-4-4-5-5-5-7-7-7-5ph-5b----------|
D|--5--5-5-7-7-7-------------5-5-7-7------------------------------------------|
A|----------------------------------------------------------------------------|
E|----------------------------------------------------------------------------|

e|-8--8-0-0-0-0-7-7-0-0-0-3-3-0-0-0-5-0-0-0-0-8-0-0-7--7-0-0-3-0-0-0-0-0------|
B|----------------------------------------------------------------------------|
G|----------------------------------------------------------------------------|
D|----------------------------------------------------------------------------|
A|----------------------------------------------------------------------------|
E|----------------------------------------------------------------------------|

e|-5-5-0-0-0-3-3-0-0-8-8--0-0-7-7-0-0-3-0-0--10-10-8--10h8-----8--12-10h8-----|
B|----------------------------------------------------------10----------------|
G|----------------------------------------------------------------------------|
D|----------------------------------------------------------------------------|
A|----------------------------------------------------------------------------|
E|----------------------------------------------------------------------------|

e|----12h8--10h8----12h8-10h8------12h8-10h8-----8---12h8---10--------15------|
B|-10------------10------------10------------10-----------------/15b----------|
G|----------------------------------------------------------------------------|
D|----------------------------------------------------------------------------|
A|----------------------------------------------------------------------------|
E|----------------------------------------------------------------------------|

e|-----------15-15--15-15---------20----20\------------------------------------|
B|-15b--(15)-----15--15-15---20----------20\-----------------------------------|
G|-----------------------------------------------------------------------------|
D|-----------------------------------------------------------------------------|
A|-----------------------------------------------------------------------------|
E|-----------------------------------------------------------------------------|

   Solo/Riff
e|----------------------------------------------------------------------------|
B|----------------------------------------------------------------------------|
G|----------------------------------------------------------------------------|
D|-----------------10----------------------10-----------------------10--------|
A|-13--12--0-10-12-----12-10-0-13-12-10-12----12-10--13-12-0-10-12-----12-----|
E|----------------------------------------------------------------------------|

e|----------------------------------------------------------------------------|
B|----------------------------------------------------------------------------|
G|--------------11------11-14-11----------------------------------------------|
D|----13-10-13------13------------------------------10------------------------|
A|-10-------------------------------13--12--0-10-12----12-10--0-13--12--10----|
E|----------------------------------------------------------------------------|

e|----------------------------------------------------------------------------|
B|----------------------------------------------------------------------------|
G|----------------------------------------------------11----------------14\---|
D|-----10------------------------10---------13-10-13------13--10-13--10-------|
A|--12-----12-10--13-12-0-10-12------12-10------------------------------------|
E|----------------------------------------------------------------------------|

e|--------------------------------------------------17v---17v---17v-----------|
B|------------------------------16-----16-19-16-19----------------------------|
G|----14-------14--17--14--17------17-----------------------------------------|
D|-16------16-----------------------------------------------------------------|
A|----------------------------------------------------------------------------|
E|----------------------------------------------------------------------------|

Then Repeat Main Riff from intro and End on A5

| /  slide up
| \  slide down
| h  hammer-on
| p  pull-off
| ~  vibrato
| +  harmonic
| x  Mute note
=============================================================
Suggest correction new What's this?
You can suggest a correction to this tab. Community and Mods will review your correction and vote to approve or reject it.
comments
print report bad tab
5 comments total. Showing first comments.
-2 reply
billytalentROKS 244 wrote on July 19 2008, 06:01 pm

you so copied this off of the Guitar World magazine. The tuning, bass and everything is the same!

+1 reply
Ratt n' Roll 528 wrote on September 26 2008, 11:44 am

So what if he took it from the magazine, I have the magazine too and wouldn't people rather play it the the right way than some shitty way. Shut up billytalentROKS

-2 reply
braddarocker 14 wrote on November 20 2008, 09:50 pm

you r horrible set the guitar down

guest
You may want to rate the tab now too:
select rating
Please do not post tabs as comments. Select "correction" instead!