Oops, an error
Loading. Please wait.

Just Stop Bass Tab

version 1
version 1

Whole song

3,212 views 1 this week
1 commentread comment
1 2 3 4 5
please rate
add to favorites
launch autoscroll
font size
0
reset
guitar tuner
Tab Pro tools
  • play this tab
  • loop segment
  • change instrument
  • show fretboard
  • metronome
×
Best way to learn
"Just Stop"
Autoscroll
slow
fast
+/-
esc
set tempo
stop
Difficulty
Tuning
intermediate
C# G# C# F# A# D#
5-String Bass tuned in (Bb,Db,Ab,Db,Gb)
Moderately= 102bpm

Intro(0:09)(0:18)
Gb|-----------------------------|--------------------------------|
Db|-----------------------------|--------------------------------|
Ab|------------3h5----------5h6-|------------3h5-6p5-------------|
Db|-0-0--0-5h6-----0--0-5h6-----|-0-0--0-5h6---------6-5p3---3h5-|
Bb|-----------------------------|--------------------------0-----|

Gb|-----------------------------|--------------------------------|
Db|-----------------------------|--------------------------------|
Ab|------------3h5----------5h6-|------------3h5-6p5-------------|
Db|-0-0--0-5h6-----0--0-5h6-----|-0-0--0-5h6---------6-3h5---3h5-|
Bb|-----------------------------|--------------------------0-----|

Verse(0:28)(0:38)(1:18)(1:27)
Gb|------------------------------------------------------------|
Db|------------------------------------------------------------|
Ab|------------------------------------------------------------|
Db|-0-0--0-0-0-0-0--0--0-0-0-0-0--0-0--0-0-0-0-0-3--0-3--0-3s5-|
Bb|------------------------------------------------------------|

Gb|--------------------------------------------------------------|
Db|--------------------------------------------------------------|
Ab|--------------------------------------------------------------|
Db|-0-0--0-0-0-0-0--0--0-0-0-0-0--0-0--0-0-0-0-0-3--0-3--0-3s5s3-|
Bb|--------------------------------------------------------------|

Gb|------------------------------------------------------------|
Db|------------------------------------------------------------|
Ab|------------------------------------------------------------|
Db|-0-0--0-0-0-0-0--0--0-0-0-0-0--0-0--0-0-0-0-0-3--0-3--0-3s5-|
Bb|------------------------------------------------------------|

Gb|-----------------------------------------------------|
Db|-----------------------------------------------------|
Ab|-----------------------------------------------------|
Db|-0-0--0-0-0-0-0--0--0-0-0-0-0--0-0--0-0-0-0-0-8-7--3-|
Bb|-----------------------------------------------------|

Chorus(0:47)(1:36)(2:42)
Gb|---------------------|-----------------------|--------------------------|
Db|---------------------|-----------------------|--------------------------|
Ab|---------------------|-----------------------|--------------------------|
Db|-8--8-8-8--8--8--8-8-|-0--0-0--0---0--0--0-0-|-10--1010--10-101010-1010-|
Bb|---------------------|-----------------------|--------------------------|

Gb|----------------------|---------------------|-------------------|
Db|----------------------|---------------------|-------------------|
Ab|----------------------|---------------------|-------------------|
Db|-10-1010-10--1010-3-3-|-8--8-8-8--8--8--8-8-|-0--0-0-0-0--0-0-0-|
Bb|----------------------|---------------------|-------------------|

Gb|---------------------|-----------------------|
Db|---------------------|-----------------------|
Ab|---------------------|-------------------0-0-|
Db|---------------------|-10-10-10-10-10-10-----|
Bb|-1--1--1-1-1---1-1-1-|-----------------------|

Fill(1:06)
Gb|-----------------------------|--------------------------------|
Db|-----------------------------|--------------------------------|
Ab|------------3h5----------5h6-|------------3h5-6p5-------------|
Db|-0-0--0-5h6-----0--0-5h6-----|-0-0--0-5h6---------6-5p3---3h5-|
Bb|-----------------------------|--------------------------0-----|

Gb|-----------------------------|--------------------------------|
Db|-----------------------------|--------------------------------|
Ab|------------3h5----------5h6-|------------3h5-6p5-------------|
Db|-0-0--0-5h6-----0--0-5h6-----|-0-0--0-5h6---------6-3h5---3h5-|
Bb|-----------------------------|--------------------------0-----|

Gb|--------------|
Db|--------------|
Ab|--------------|
Db|-0--------12/-|
Bb|--------------|

Verse(0:28)(0:38)(1:18)(1:27)
Gb|------------------------------------------------------------|
Db|------------------------------------------------------------|
Ab|------------------------------------------------------------|
Db|-0-0--0-0-0-0-0--0--0-0-0-0-0--0-0--0-0-0-0-0-3--0-3--0-3s5-|
Bb|------------------------------------------------------------|

Gb|--------------------------------------------------------------|
Db|--------------------------------------------------------------|
Ab|--------------------------------------------------------------|
Db|-0-0--0-0-0-0-0--0--0-0-0-0-0--0-0--0-0-0-0-0-3--0-3--0-3s5s3-|
Bb|--------------------------------------------------------------|

Gb|------------------------------------------------------------|
Db|------------------------------------------------------------|
Ab|------------------------------------------------------------|
Db|-0-0--0-0-0-0-0--0--0-0-0-0-0--0-0--0-0-0-0-0-3--0-3--0-3s5-|
Bb|------------------------------------------------------------|

Gb|-----------------------------------------------------|
Db|-----------------------------------------------------|
Ab|-----------------------------------------------------|
Db|-0-0--0-0-0-0-0--0--0-0-0-0-0--0-0--0-0-0-0-0-8-7--3-|
Bb|-----------------------------------------------------|

Chorus(0:47)(1:36)(2:42)
Gb|---------------------|-----------------------|--------------------------|
Db|---------------------|-----------------------|--------------------------|
Ab|---------------------|-----------------------|--------------------------|
Db|-8--8-8-8--8--8--8-8-|-0--0-0--0---0--0--0-0-|-10--1010--10-101010-1010-|
Bb|---------------------|-----------------------|--------------------------|

Gb|----------------------|---------------------|-----------------------|
Db|----------------------|---------------------|-----------------------|
Ab|----------------------|---------------------|-----------------------|
Db|-10-10-101010--10-3-3-|-8--8-8-8--8--8--8-8-|-0--0-0--0---0--0--0-0-|
Bb|----------------------|---------------------|-----------------------|

Gb|--------------------------|----------------------|--------------------|
Db|--------------------------|---------------------0|--------------------|
Ab|--------------------------|----------------------|--------------------|
Db|-10--1010--10-101010-1010-|-10-10-101010--10-33-0|-8--88-8--8-8--8-10-|
Bb|--------------------------|----------------------|--------------------|

Gb|---------------|-------------------------|------------------------------|
Db|---------------|-------------------------|------------------------------|
Ab|---------------|-------------------------|---------15h17-----15h17------|
Db|-7-7777-777-10-|-5--5-5-5s17-17-17-17-17-|-15h17-17-----15h17-----15-17-|
Bb|---------------|-------------------------|------------------------------|

Interlube(2:14)
Gb|----|----|----------------------------------------|
Db|----|----|----------------------------------------|
Ab|----|----|----------------------------------------|
Db|-0--|----|-0-1-0-3-0-6-0-1-0-6--0-0-3-0-0-6-0-0-3-|
Bb|----|----|----------------------------------------|

Bridge(2:24)(2:33)
Gb|--------------------------------------|--------------------------------|
Db|--------------------------------------|--------------------------------|
Ab|--------------------------------------|--------------------------------|
Db|-0-1-0-3-0-6-0-1-0-6-0--3-0-0-6-0-3s6-|-0-1-0-3-0-6-0-1-0-6--003006003-|
Bb|--------------------------------------|--------------------------------|

Chorus(0:47)(1:36)(2:42)
Gb|---------------------|-----------------------|--------------------------|
Db|---------------------|-----------------------|--------------------------|
Ab|---------------------|-----------------------|--------------------------|
Db|-8--8-8-8--8--8--8-8-|-0--0-0--0---0--0--0-0-|-10--1010--10-101010-1010-|
Bb|---------------------|-----------------------|--------------------------|

Gb|----------------------|---------------------|-----------------------|
Db|----------------------|---------------------|-----------------------|
Ab|----------------------|---------------------|-----------------------|
Db|-10-10-101010--10-3-3-|-8--8-8-8--8--8--8-8-|-0--0-0--0---0--0--0-0-|
Bb|----------------------|---------------------|-----------------------|

Gb|--------------------------|----------------------|--------------------|
Db|--------------------------|---------------------0|--------------------|
Ab|--------------------------|----------------------|--------------------|
Db|-10--1010--10-101010-1010-|-10-10-101010--10-33-0|-8--88-8--8-8--8-10-|
Bb|--------------------------|----------------------|--------------------|

Gb|---------------|-------------------------|------------------------------|
Db|---------------|-------------------------|------------------------------|
Ab|---------------|-------------------------|---------15h17-----15h17------|
Db|-7-7777-777-10-|-5--5-5-5s17-17-17-17-17-|-15h17-17-----15h17-----15-17-|
Bb|---------------|-------------------------|------------------------------|

Outro(3:20)
Gb|-----------------------------|--------------------------------|
Db|-----------------------------|--------------------------------|
Ab|------------3h5----------5h6-|------------3h5-6p5-------------|
Db|-0-0--0-5h6-----0--0-5h6-----|-0-0--0-5h6---------6-5p3---3h5-|
Bb|-----------------------------|--------------------------0-----|

Gb|-----------------------------|--------------------------------|
Db|-----------------------------|--------------------------------|
Ab|------------3h5----------5h6-|------------3h5-6p5-------------|
Db|-0-0--0-5h6-----0--0-5h6-----|-0-0--0-5h6---------6-3h5---3h5-|
Bb|-----------------------------|--------------------------0-----|

Gb|-----------------------------|--------------------------------|
Db|-----------------------------|--------------------------------|
Ab|------------3h5----------5h6-|------------3h5-6p5-------------|
Db|-0-0--0-5h6-----0--0-5h6-----|-0-0--0-5h6---------6-5p3---3h5-|
Bb|-----------------------------|--------------------------0-----|

Gb|-----------------------------|--------------------------------|
Db|-----------------------------|--------------------------------|
Ab|------------3h5----------5h6-|------------3h5-6p5-------------|
Db|-0-0--0-5h6-----0--0-5h6-----|-0-0--0-5h6---------6-5s3-0-3h5-|
Bb|-----------------------------|--------------------------------|

Gb|---------------------------------|----|
Db|---------------------------------|----|
Ab|-----------------6p5-------------|----|
Db|-0-5p3-0-3-0-3h5-----6-5s3-0-3h5-|-0--|
Bb|---------------------------------|----|


Im am 110% sure that this is the way to play this song.
Chris-Thorn of the Black Rose enJoy



comments
We did not receive enough feedback on this tab! Please rate:
print report bad tab
1 2 3 4 5
1 comment total.
0 reply
Crazyfeet wrote on November 16 2011, 12:52 pm

LOL interlube.

I want to post or [tab]
guest
You may want to rate the tab now too:
select rating
Please do not post tabs as comments. Select "correction" instead!