Oops, an error
Loading. Please wait.

Just Stop Tab

version 3
version 3

Whole song

13,619 views 3 this week
6 commentsread comments
1 2 3 4 5
excellent!
x 13
add to favorites
launch autoscroll
font size
0
reset
how to read this tab
guitar tuner
Autoscroll
slow
fast
+/-
esc
set tempo
stop
Help us to improve Ultimate-Guitar.com Take our survey!
×
Author
Difficulty
Tuning
intermediate
D A D G B E
Just Stop tabbed by...me.
I am also uploading a GuitarPro version of this song, for those who have it.
Drop Db tuning

Intro (2x)

   s s  s s s s s  s  s s s s s s s  s s s s s s s s s s s s s
Eb|-------------------------------------------------------------|
Bb|-------------------------------------------------------------|
Gb|-------------------------------------------------------------|
Db|-------------------------------------------------------------|
Ab|-----------3h5-----------5h6------------3h5-6p5p0-9p8p0------|
Db|0-0--0-5h7------0--0-5h7-----0-0--0-5h7-----------------3h5--|

   s s  s s s s s  s  s s s s s s s  s s s s s s s s s s s s s
Eb|------------------------------------------------------------|
Bb|------------------------------------------------------------|
Gb|------------------------------------------------------------|
Db|------------------------------------------------------------|
Ab|-----------3h5-----------5h6------------3h5-6p5-------------|
Db|0-0--0-5h7------0--0-5h7-----0-0--0-5h7---------0h3h5-0h3h5-|

Verse (1x)

   s s  s s s s s  s  s s s s s s s  s s s s s e  e  s s  
Eb|-------------------------------------------------------|
Bb|-------------------------------------------------------|
Gb|-------------------------------------------------------|
Db|--------------------------------------------3--3--3h5--|
Ab|--------------------------------------------3--3--3h5--|
Db|0-0--0-0-0-0-0--0--0-0-0-0-0-0-0--0-0-0-0-0-3--3--3h5--|
   . .  . . . . .  .  . . . . . . .  . . . . . 

   s s  s s s s s  s  s s s s s s s  s s s s s e  e  s s s
Eb|---------------------------------------------------------|
Bb|---------------------------------------------------------|
Gb|---------------------------------------------------------|
Db|--------------------------------------------5--5--3h5p3--|
Ab|--------------------------------------------5--5--3h5p3--|
Db|0-0--0-0-0-0-0--0--0-0-0-0-0-0-0--0-0-0-0-0-5--5--3h5p3--|
   . .  . . . . .  .  . . . . . . .  . . . . . 

   s s  s s s s s  s  s s s s s s s  s s s s s e  e  s s 
Eb|-------------------------------------------------------|
Bb|-------------------------------------------------------|
Gb|-------------------------------------------------------|
Db|--------------------------------------------3--3--3h5--|
Ab|--------------------------------------------3--3--3h5--|
Db|0-0--0-0-0-0-0--0--0-0-0-0-0-0-0--0-0-0-0-0-3--3--3h5--|

   s s  s s s s s  s  s s s s s s s  s s s s s e  e  s
Eb|----------------------------------------------------|
Bb|----------------------------------------------------|
Gb|----------------------------------------------------|
Db|--------------------------------------------8--7--3-|
Ab|--------------------------------------------8--7--3-|
Db|0-0--0-0-0-0-0--0--0-0-0-0-0-0-0--0-0-0-0-0-8--7--3-|

Chorus (1x)

   e  e  ssss  ss e  e  ssss  ss e   e   s s s s   s s s   e   e   s s s s   s s s  
Eb|---------------------------------------------------------------------------------|
Bb|---------------------------------------------------------------------------------|
Gb|---------------------------------------------------------------------------------|
Db|8--8--8888--88-0--0--0000--00-10--10--10101010--101010--10--10--10101010--101010-|
Ab|8--8--8888--88-0--0--0000--00-10--10--10101010--101010--10--10--10101010--101010-|
Db|8--8--8888--88-0--0--0000--00-10--10--10101010--101010--10--10--10101010--101010-|
                                 ^ these are tens
  
   e  e  ssss  ss e  e  ssss  ss e   e   s s s s   s s q                                
Eb|---------------------------------------------------------|
Bb|---------------------------------------------------------|
Gb|---------------------------------------------------------|
Db|8--8--8888--88-0--0--0000--00-10--10--10101010--101010~~~|
Ab|8--8--8888--88-0--0--0000--00-10--10--10101010--101010~~~|
Db|8--8--8888--88-0--0--0000--00-10--10--10101010--101010~~~|

Intro (1x)

Fill (1x)

Eb|---------------------------|
Bb|---------------------------|
Gb|---------------------------|
Db|---------------------------|
Ab|---------------------------|
Db|0-0--0-0-0-0-0--0--0-0-0-0-|
   . .  . . . . .  .  . . . .

Verse (1x)

Chorus (1x) then:

   e  e  ssss  ss e  e  ssss  ss e   e   s s s s   s s s   e   e   s s s s   s s s  
Eb|---------------------------------------------------------------------------------|
Bb|---------------------------------------------------------------------------------|
Gb|---------------------------------------------------------------------------------|
Db|8--8--8888--88-0--0--0000--00-10--10--10101010--101010--10--10--10101010--101010-|
Ab|8--8--8888--88-0--0--0000--00-10--10--10101010--101010--10--10--10101010--101010-|
Db|8--8--8888--88-0--0--0000--00-10--10--10101010--101010--10--10--10101010--101010-|

   e  e  ssss  ss e  e  ssss  ss e  e  ssss  ssw
Eb|------------------------------------------------|
Bb|------------------------------------------------|
Gb|------------------------------------------------|
Db|8--8--8888--88-7--7--7777--77-5--5--5555--555~~~|
Ab|8--8--8888--88-7--7--7777--77-5--5--5555--555~~~|
Db|8--8--8888--88-7--7--7777--77-5--5--5555--555~~~|

Breakdown

   e   e   e   s. s. s s  s. s ssssssss
Eb|------------------------------------|
Bb|------------------------------------|
Gb|------------------------------------|
Db|0---3---0---6--0--1-0--6--0-3xxx5035|
Ab|0---3---0---6--0--1-0--6--0-3xxx5035|
Db|0---3---0---6--0--1-0--6--0-3xxx5035|

   e   e   e   s. s. s s  s. s ssssssss
Eb|------------------------------------|
Bb|------------------------------------|
Gb|------------------------------------|
Db|0---3---0---6--0--1-0--6--0-3xxx5xxx|
Ab|0---3---0---6--0--1-0--6--0-3xxx5xxx|
Db|0---3---0---6--0--1-0--6--0-3xxx5xxx|

   e   e   e   s. s. s s  s. s ssssssss
Eb|------------------------------------|
Bb|------------------------------------|
Gb|------------------------------------|
Db|0---3---0---6--0--1-0--6--0-3xxx5035|
Ab|0---3---0---6--0--1-0--6--0-3xxx5035|
Db|0---3---0---6--0--1-0--6--0-3xxx5035|

  e   e   e   s. s. s s  s. s ssssssss
Eb|------------------------------------|
Bb|------------------------------------|
Gb|------------------------------------|
Db|0---3---0---6--0--1-0--6--0-3xxx5xxx|
Ab|0---3---0---6--0--1-0--6--0-3xxx5xxx|
Db|0---3---0---6--0--1-0--6--0-3xxx5xxx|

   e   e   e   s. s. s s  s. s ssssssss
Eb|------------------------------------|
Bb|------------------------------------|
Gb|------------------------------------|
Db|0---3---0---6--0--1-0--6--0-3xxx5035|
Ab|0---3---0---6--0--1-0--6--0-3xxx5035|
Db|0---3---0---6--0--1-0--6--0-3xxx5035|

   e   e   e   s. s. s s  s. s ssssssss
Eb|------------------------------------|
Bb|------------------------------------|
Gb|------------------------------------|
Db|0---3---0---6--0--1-0--6--0-3xxx5035|
Ab|0---3---0---6--0--1-0--6--0-3xxx5035|
Db|0---3---0---6--0--1-0--6--0-3xxx5035|


Eb|------------------------------|
Bb|------------------------------|
Gb|------------------------------|
Db|8~~~~~~0~~~~~~10~~~~~~10~~~~~~|
Ab|8~~~~~~0~~~~~~10~~~~~~10~~~~~~|
Db|8~~~~~~0~~~~~~10~~~~~~10~~~~~~|

Chorus (1x)

   e  e  ssss  ss e  e  ssss  ss e  e  ssss  ssw
Eb|------------------------------------------------|
Bb|------------------------------------------------|
Gb|------------------------------------------------|
Db|8--8--8888--88-7--7--7777--77-5--5--5555--555~~~|
Ab|8--8--8888--88-7--7--7777--77-5--5--5555--555~~~|
Db|8--8--8888--88-7--7--7777--77-5--5--5555--555~~~|

Intro (1x)

Outro (1x)

   s s  s s s s s  s  s s s s s s s  s s s s s s s s s s s s s
Eb|-------------------------------------------------------------|
Bb|-------------------------------------------------------------|
Gb|-------------------------------------------------------------|
Db|-------------------------------------------------------------|
Ab|-----------3h5-----------5h6------------3h5-6p5p0-9p8p0------|
Db|0-0--0-5h7------0--0-5h7-----0-0--0-5h7-----------------3h5--|

   s s  s s s s s  s  s s s s s s s  s s s s s s s s s s s s s s s s s s s s s s s s s s s s s s
Eb|----------------------------------------------------------------------------------------------|
Bb|----------------------------------------------------------------------------------------------|
Gb|----------------------------------------------------------------------------------------------|
Db|--------------------------------------------------------------------------------------------0-|
Ab|-----------3h5-----------5h6------------3h5-6p5-------------6p5-------------6p5-------------0-|
Db|0-0--0-5h7------0--0-5h7-----0-0--0-5h7---------0h3h5-0h3h5-----0h3h5-0h3h5-----0h3h5-0h3h5-0-|

Rock on!




Suggest correction
What's this?
You can suggest a correction to this tab. Community and Mods will review your correction and vote to approve or reject it.
comments
print report bad tab
6 comments total. Showing first comments.
0 reply
aprescott_27 861 wrote on November 18 2006, 01:07 pm

Sounds good. There is a harmony part in the main riff that you don't have tabbed. But you have the correct chorus, which the other tab I saw didn't. If I could give it a 4.5, I would.

+1 reply
poc2112 10 wrote on April 3 2008, 01:57 pm

the chorus is a bit off... the bridge is a bit off also... but its a great tab to be guided by. 4*

0 reply
Kortez3000 582 wrote on August 20 2008, 09:58 pm

5/5

guest
You may want to rate the tab now too:
select rating
Please do not post tabs as comments. Select "correction" instead!