Oops, an error
Loading. Please wait.

Land Of Confusion Bass Tab

version 1
version 1

Whole song

14,029 views 33 this week
1 commentread comment
1 2 3 4 5
excellent!
x 3
add to favorites
launch autoscroll
font size
0
reset
guitar tuner
Tab Pro tools
  • play this tab
  • loop segment
  • change instrument
  • show fretboard
  • metronome
×
Best way to learn
"Land Of Confusion"
Autoscroll
slow
fast
+/-
esc
set tempo
stop
Difficulty
intermediate
Artist: Disturbed
Song: Land of Confusion
Album: Ten Thousand Fists
Tabbed By: Siim Tiigimägi

So I made this tab because all the bass tabs were just so wrong that I learned the song myself.

Anyway, this tab is in B tuning, but it is actually played in A#,
The A# note in the chorus is played an octave lower, but other than that this tab is correct.

	Theme    

                            
      E     E  E  E  E  S S E  E   8x      
G||--------------------------------||
D||*------------------------------*||
A||--------------------------------||
E||*--------4-----4--4--4-4----4--*||
B||------------4------------4------||


	Verse    

                                                              
    S     S E  S S S S S S S S S S S S    S S S S S S S S S S S S S S S S  
|--------------------------------------|----------------------------------|
|*-------------------------------------|----------------------------------|
|--------------------------------------|----------------------------------|
|*-------------------------------------|----------------------------------|
|---4-----4----4-4-4---4---4-4---4-4---|--4-4---4-4-4-4---4---4-4---4-4---|


  S S E  S S S S S S S S S S S S    S S S S S S S S S S S S S S S S  
---------------------------------|----------------------------------|
---------------------------------|----------------------------------|
---------------------------------|----------------------------------|
--4-4----4-4-4---4---4-4---4-4---|--4-4---4-4-4-4---4---4-4---4-4---|
---------------------------------|----------------------------------|


  S S E  S S S S S S S S S S S S    S S S S S S S S S S S S S S S S  
---------------------------------|----------------------------------|
---------------------------------|----------------------------------|
---------------------------------|----------------------------------|
--7-7----7-7-7---7---7-7---7-7---|--7-7---7-7-7-7---7---7-7---7-7---|
---------------------------------|----------------------------------|


  S S E  S S S S S S S S S S S S    S S S S S S S S S S S S S S S S         
---------------------------------|-----------------------------------||
---------------------------------|----------------------------------*||
---------------------------------|-----------------------------------||
---------------------------------|----------------------------------*||
--4-4----4-4-4---4---4-4---4-4---|--4-4---4-4-4-4---4---4-4---4-4----||


	Prechorus 
 
                                                        
    E         E  E  E  E  E  E  E     E  E  E  E  S S  S  S S  S S  S  
|----------------------------------|----------------------------------|
|*---------------------------------|----------------4h-6p-4-6p-4------|
|----------------------------------|-----------------------------6p-4-|
|*---------------------------------|--2--2--2--4--4-------------------|
|---2---------2--2--4--4--4--4--4--|----------------------------------|

                           1st ending
  E  E  E  E  E  E  E  E     E  E  E  E  E  Q      E     
--------------------------|----------------------------||
--------------------------|---------------------------*||
--------------------------|----------------------------||
--------------------------|--2--2--2------------------*||
--2--2--2--4--4--4--4--4--|-----------2--2--2/----\2---||


2nd ending                                                          
  E  E  E  E  E  S S S S S S       
-----------------------------|
-----------------------------|
-----------------------------|
--2--2--2--------------------|
-----------2--2--2-2---2-2-2-|


	Chorus


    E      E  E  E  S S S S S S S S  
|-----------------------------------|
|*----------------------------------|
|-----------------------------------|
|*----------------------------------|
|----------4--4--4--0---0-0---0-0-0-|
                                                   
  E  E  E  E  S S S S S S S S   4x          
-------------------------------||----|
------------------------------*||----|
--------------1---1-1---1-1-1--||----|
------------------------------*||----|
-----2--2--2-------------------||----|

	Theme 8x

	Verse 1x

	Prechorus 2x

	Chorus 4x


	Breakdown/solo  

 
    Q.             E  E  E  Q 
|--------------------------------|
|*-------------------------------|
|--------------------------------|
|*--8--------------8-----6--8----|
|---------------------8----------|

  H        E  E  E  E     Q.     E  E  E  Q       H        E  E  E  E   
-----------------------|-----------------------|-----------------------|
-----------------------|-----------------------|-----------------------|
-----------------------|-----------------------|-----------------------|
--L-----------6--8-----|--4------4--------4----|--L--------------4-----|
-----------8-----------|------------4--6-------|-----------4--6--------|


  Q.     E  E  E  Q       H        E  E  E  E     E  E  E  E  E  E  E  E   
-----------------------|-----------------------|--------------------------|
-----------------------|-----------------------|--------------------------|
-----------------------|-----------------------|--------------------------|
--1------1-------------|-----------------1-----|--------------------------|
------------1--4--6----|--L--------1--4--------|--4--4--4--4--3--3--3--3--|


  E  E  E  E  E  E  E  E       W                   W                 
---------------------------||-------------------|-------------------|
--------------------------*||-------------------|-------------------|
--3--3--3--3---------------||-------------------|-------------------|
--------------1--1--1--1--*||--4----------------|--L----------------|
---------------------------||-------------------|-------------------|


    S S S S S S S S S S S S E  E     S S S S S S S S S S S S S S S S    
|---------------------------------|-----------------------------------||
|*--------------------------------|----------------------------------*||
|---2-2---2---2-2---2---2---------|--2-2---2---2-2---2-2-2---2-2-2----||
|*--------------------------------|----------------------------------*||
|---------------------------------|-----------------------------------||


   S S S S S S S S S S S S E  E     S S S S S S S S S S S S S S S S    
---------------------------------|-----------------------------------||
*--------------------------------|----------------------------------*||
---------------------------------|-----------------------------------||
*--------------------------------|----------------------------------*||
---0-0---0---0-0---0---0---------|--0-0---0---0-0---0-0-0---0-0-0----||


  E  E  H.              W                  
---------------------|-------------------||
---------------------|-------------------||
---------------------|-------------------||
---------------------|-------------------||
--2--4--L------------|--L----------------||

	Verse 1x

	Prechorus 2x

	Chorus 4x

	Theme 8x

Duration Legend
---------------
W - whole
H - half
Q - quarter
E - 8th
S - 16th
T - 32nd
X - 64th
. - note dotted
|-n-|  - n-tuplets


Tablature Legend
----------------
L - tied note
x - dead note
g - grace note
(n) - ghost note
> - accentuded note
NH - natural harmonic
AH - artificial harmonic
TH - tapped harmonic
SH - semi harmonic
PH - pitch harmonic
h - hammer on
p - pull off
b - bend
br - bendRelease
pb - preBend
pbr - preBendRelease
brb - bendReleaseBend
\n/ - tremolo bar dip
\n - tremolo bar dive
-/n - tremolo bar Release up
/n\ - tremolo bar inverted dip
/n - tremolo bar return
-\n - tremolo bar Release down
S - shift slide
s - legato slide
/ -  slide into from below or out of upwards
\ -  slide into from above or out of downwards
~ - vibrato
W - wide vibrato
tr - trill
TP - tremolo picking
T - tapping
S - slap
P - pop
< - fade in
^ - brush up
v - brush down
comments
We did not receive enough feedback on this tab! Please rate:
print report bad tab
1 2 3 4 5
1 comment total.
0 reply
mac_attack wrote on February 9 2015, 03:59 pm

This is a perfect tab, good job. Looked at many. I had to transpose to Drop Db 4-string but not complaining!

I want to post or [tab]
guest
You may want to rate the tab now too:
select rating
Please do not post tabs as comments. Select "correction" instead!