Oops, an error
Loading. Please wait.

Land Of Confusion Tab

version 1
version 1

Intro

Whole song

11,474 views 1 this week
4 commentsread comments
1 2 3 4 5
worth learning
x 5
add to favorites
launch autoscroll
font size
0
reset
how to read this tab
guitar tuner
Autoscroll
slow
fast
+/-
esc
set tempo
stop
Help us to improve Ultimate-Guitar.com Take our survey!
×
Contributor
Difficulty
Tuning
Peolesdru 153
intermediate
C G C F A D
Not the intro, but there's no option for "bridge".

Here's the bridge in drop-c. They're the right notes but he may be playing them
elsewhere. Personally, I think the song's in drop-D and not drop-Db. But here's
the drop-C version, sequence is phrase 1, prase 2, prase 1, prase 3

D|---------------------------------|
A|---------------------------------|
F|---0-2---0-2-----2-----0---------| prase 1
C|-0-----3-----2-3---2-3---2-3-2---|
G|-------------------------------3-|
C|---------------------------------|

D|---------------------------------|
A|---------------------------------|
F|---0-2---0-2-----2-----0-------0-| phrase 2
C|-0-----3-----2-3---2-3---0-2-3---|
G|---------------------------------|
C|---------------------------------|

D|---------------------------------|
A|---------------------------------|
F|-----------------7-7-7-7---------| phrase 3
C|-3-3-3-3-2-2-2-2-7-7-7-7-5-5-5-5-|
G|-3-3-3-3-2-2-2-2-5-5-5-5-5-5-5-5-|
C|-3-3-3-3-2-2-2-2---------5-5-5-5-|

Suggest correction new What's this?
You can suggest a correction to this tab. Community and Mods will review your correction and vote to approve or reject it.
comments
print report bad tab
4 comments total. Showing first comments.
0 reply
Operator (CA) 1,121 wrote on November 26 2005, 10:47 am

nice! someone can tab the solo now? i figured out about half of it but i want the other half...

0 reply
Subbliminal 363 wrote on December 12 2005, 10:11 am

Im almost done the solo.
And also the song is in drop db as right before the chorus there is a riff with an open Db5.

0 reply
Subbliminal 363 wrote on December 22 2005, 07:37 am

That and on the Disturbed forum Dan says all their songs are Drop Db or Drop C, and sometimes (like in Want) Just a half step down tuning.

guest
You may want to rate the tab now too:
select rating
Please do not post tabs as comments. Select "correction" instead!