Oops, an error
Loading. Please wait.

Land Of Confusion Tab

version 1
version 1

Solo

Whole song

20,949 views 27 this week
4 commentsread comments
1 2 3 4 5
excellent!
x 8
add to favorites
launch autoscroll
font size
0
reset
how to read this tab
guitar tuner
Tab Pro tools
  • play this tab
  • loop segment
  • change instrument
  • show fretboard
  • metronome
×
Best way to learn
"Land Of Confusion"
Autoscroll
slow
fast
+/-
esc
set tempo
stop
Contributor
Difficulty
Tuning
intermediate
D A D G B E
----Land of Confusion + Disturbed-----

-Tuning is: All Notes Half Step Down + Drop Db

------Db Ab Db Gb Bb Eb (low to high)------


Tabbed By: Jay Logan
Email: Subbliminal@DONTSPAM@hotmail.com 
           -Just remove the 'DONTSPAM of course.


Legend - I suggest looking over it, there are some descriptions, as well as special cases.

 /  - Slide Right (If only 1 number just slide from anywhere towards it left to right)
 \  - Slide left (If only 1 number just slide from anywhere towards it right to left)
 ^  - Bend (5^7= bend the 5 fret until it sounds like 7, or 5^ = quick bend)
(~) - Vibrato (5(~) = Wiggle the string shown)
(5) - Natural Harmonic (Just put your finger lightly over the actually fret)
<5> - Artificial Harmonic (You pick the string and let your thumb touch as well while
holding the fret shown)
 x  - Mute that string
 .  - Palm Mute (Mute the note shown with picking hand palm, the '.' is under the note)
 h  - Hammer On (ie..3h5 = pic the 3rd fret and then hammer your finger into the 5th without picking)
 p  - Pull Off (opposite of hammer on, 5p3 = pic the 5th while holding the 3rd as well,
then pull your finger of the 5th)
 g  - Grace note


Duration Legend
---------------
W - whole
H - half
Q - quarter
E - 8th
S - 16th
T - 32nd
X - 64th
. - note dotted
|-n-|  - n-tuplets
L - Tied Note

Time: 4/4
Bpm: 125


Update: Chords Added (At End)



     E  E E  E E E  E E E E E E E E E E   E  E E  E E E  E E E E E E E E E E
Eb|-------------------------------------|------------------------------------|
Bb|-------------------------------------|------------------------------------|
Gb|-------------------------------------|------------------------------------|
Db|---------------------6---------------|--------------------6---------------|
Ab|-----9-11-7-9-11-6-7---6-7-9-6-7-6---|----9-11-7-9-11-6-7---6-7-9-4-6-7-9-|
Db|--11-------------------------------9-|-11---------------------------------|



    E  E E  E E E  E E E E E E E E E E   E E E E  E E E E  E E E E  E E E E
Eb|------------------------------------|-------------------------------------|
Bb|------------------------------------|-------------------------------------|
Gb|------------------------------------|-------------------6-6-6-6-----------|
Db|--------------------6---------------|-2-2-2-2--1-1-1-1--6-6-6-6--4-4-4-4--|
Ab|----9-11-7-9-11-6-7---6-7-9-6-7-6---|-2-2-2-2--1-1-1-1--4-4-4-4--4-4-4-4--|
Db|-11-------------------------------9-|-2-2-2-2--1-1-1-1-----------4-4-4-4--|



     E  E E  E E E  E E E E E E E E E E   E  E E  E E E  E E E E E E E E E E
Eb|-------------------------------------|------------------------------------|
Bb|-------------------------------------|------------------------------------|
Gb|-------------------------------------|------------------------------------|
Db|---------------------6---------------|--------------------6---------------|
Ab|-----9-11-7-9-11-6-7---6-7-9-6-7-6---|----9-11-7-9-11-6-7---6-7-9-4-6-7-9-|
Db|--11-------------------------------9-|-11---------------------------------|



    E  E E  E E E  E E E E E E E E E E   E E E E  E E E E  E E E E  E E E E
Eb|------------------------------------|-------------------------------------|
Bb|------------------------------------|-------------------------------------|
Gb|------------------------------------|-------------------6-6-6-6-----------|
Db|--------------------6---------------|-2-2-2-2--1-1-1-1--6-6-6-6--4-4-4-4--|
Ab|----9-11-7-9-11-6-7---6-7-9-6-7-6---|-2-2-2-2--1-1-1-1--4-4-4-4--4-4-4-4--|
Db|-11-------------------------------9-|-2-2-2-2--1-1-1-1-----------4-4-4-4--|



   *
     H.           Q       H         H          H.           Q       H           Q.  E
Eb|--------------------|--------------------|--------------------|---------------------|
Bb|--------------------|--------------------|--------------------|------------------12-|
Gb|--12~----------12---|--11~---------------|--------------------|--11~----------------|
Db|--------------------|------------12~-----|--10~----------10---|--------------12-----|
Ab|--------------------|--------------------|--------------------|---------------------|
Db|--------------------|--------------------|--------------------|---------------------|



    E   S  E   S  S  S  E   S  E   S  S  S    E   S  E   S  S  S  E   S  E   S  S  S
Eb|-15-----14-----------15-----14-----------|-15-----14-----------15-----14------------|
Bb|-----12-----12-15-12-----12-----12-15-12-|-----12-----12-15-12-----12-----12-15-12--|
Gb|-----------------------------------------|------------------------------------------|
Db|-----------------------------------------|------------------------------------------|
Ab|-----------------------------------------|------------------------------------------|
Db|-----------------------------------------|------------------------------------------|



    |-------6------|  |-------6------|  |-------6------|  |-------6------|
    S  S  S  S  S  S  S  S  S  S  S  S  S  S  S  S  S  S  S  S  S  S  S  S
Eb|-12h15p12----------12h15p12----------12h15p12----------12h15p12---------------------|
Bb|----------15p12h15----------15p12h15----------15p12h12----------15p12h12------------|
Gb|------------------------------------------------------------------------------------|
Db|------------------------------------------------------------------------------------|
Ab|------------------------------------------------------------------------------------|
Db|------------------------------------------------------------------------------------|



          |-------6------|  |-------6-------|  |----6---------|  |-3-|  
     E    S  S  S  S  S  S  S  S  S      E  S  S  S  S  S  S  S  S   E  
Eb|------------------------------------------------------------------------------------|
Bb|--15b--12h13p12-13p12-------------12g13-----------12--------------------------------|
Gb|----------------------14p12h14p12--------12h14p12----14p12h14p12--------------------|
Db|------------------------------------------------------------------12/---------------|
Ab|------------------------------------------------------------------------------------|
Db|------------------------------------------------------------------------------------|

 
                                   |--3--|                ^(Full+1/4)
      H          Q.       E    E   S  S  S    Q.        Q. 
Eb|--------------12s------14-|-L-------------/19~------/22^24~-------------------------|
Bb|--------------------------|---------------------------------------------------------|
Gb|--------------------------|---------------------------------------------------------|
Db|--/14~--------------------|-----12h14p12~-------------------------------------------|
Ab|--------------------------|---------------------------------------------------------|
Db|--------------------------|---------------------------------------------------------|



-------Chords for solo----------

Note The solo Starts at the 3rd bar of these chords (* will indicated joining point)


     W                    W
Eb|--------------------|--------------------|
Bb|--------------------|--------------------|
Gb|--------------------|--------------------|
Db|--7-----------------|--L-----------------|
Ab|--7-----------------|--L-----------------|
Db|--7-----------------|--L-----------------|



  *
      S  E   E   S  E   E   E   Q       S  E   E   S  E   S  S  E   S  S  E
Eb|---------------------------------|----------------------------------------|
Bb|---------------------------------|----------------------------------------|
Gb|---------------------------------|----------------------------------------|
Db|---------------------------------|----------------------------------------|
Ab|--10-10--10--10-10--10--10-------|--10-10--10--10-10--10-10-10--10-10-10--|
Db|--10-10--10--10-10--10--10-------|--10-10--10--10-10--10-10-10--10-10-10--|
      .  .   .   .  .   .   .           .  .   .   .  .   .  .  .   .  .  .



      S  E   E   S  E   E   E   Q       S  E   E   S  E   S  S  E   S  S  E
Eb|---------------------------------|----------------------------------------|
Bb|---------------------------------|----------------------------------------|
Gb|---------------------------------|----------------------------------------|
Db|---------------------------------|----------------------------------------|
Ab|--10-10--10--10-10--10--10-------|--10-10--10--10-10--10-10-10--10-10-10--|
Db|--10-10--10--10-10--10--10-------|--10-10--10--10-10--10-10-10--10-10-10--|
      .  .   .   .  .   .   .           .  .   .   .  .   .  .  .   .  .  .



     S  S  S  E   S  S  S  E   E   Q        S  S  S  E   S  S  S  S  S  E   S  S  E
Eb|-------------------------------------|--------------------------------------------|
Bb|-------------------------------------|--------------------------------------------|
Gb|-------------------------------------|--------------------------------------------|
Db|-------------------------------------|--------------------------------------------|
Ab|--10-10-10-10--10-10-10-10--10-------|---9--9--9--9---9--9--9--9--9--9---9--9--9--|
Db|--10-10-10-10--10-10-10-10--10-------|--10-10-10-10--10-10-10-10-10-10--10-10-10--|



     S  S  S  E   S  S  S  E   E   Q        S  S  S  E   S  S  S  S  S  E   S  S  E
Eb|-------------------------------------|--------------------------------------------|
Bb|-------------------------------------|--------------------------------------------|
Gb|-------------------------------------|--------------------------------------------|
Db|-------------------------------------|--------------------------------------------|
Ab|--10-10-10-10--10-10-10-10--10-------|---9--9--9--9---9--9--9--9--9--9---9--9--9--|
Db|--10-10-10-10--10-10-10-10--10-------|--10-10-10-10--10-10-10-10-10-10--10-10-10--|


Then When you hear the solo's 12/14 slide:

Eb|--------------------|--------------------|
Bb|--------------------|--------------------|
Gb|--------------------|--------------------|
Db|--12--14------------|--L-----------------|
Ab|--12--14------------|--L-----------------|
Db|--12--14------------|--L-----------------|




-------Bass Part for First Part of solo----------

Tuning 
------Bb Db Ab Db Gb (low to high)------



    E E E E E E E E    H    E E E E   E E E E E E E E    H    E E E E
Gb|------------------|--------------|------------------|-----------------|
Db|------------------|--------------|------------------|-----------------|
Ab|-4-4-4-4-4-4-4-4\-|--------------|------------------|-----------------|
Db|------------------|------6-7-6-2-|-7-7-7-7-7-7-7-7\-|------4-6-7-6----|
Bb|------------------|--------------|------------------|-----------------|


    E E E E E E E E    H    E E E E   E E E E E E E E    E E E E E E E E
Gb|------------------|--------------|------------------|-----------------|
Db|------------------|--------------|------------------|-----------------|
Ab|------------------|------------2-|------------------|-4-4-4-4---------|
Db|-4-4-4-4-4-4-4-4\-|------1-2-1---|-2-2-2-2-1-1-1-1--|---------4-4-4-4-|
Bb|------------------|--------------|------------------|-----------------|


    E E E E E E E E    H    E E E E   E E E E E E E E    H    E E E E
Gb|------------------|--------------|------------------|-----------------|
Db|------------------|--------------|------------------|-----------------|
Ab|-4-4-4-4-4-4-4-4\-|--------------|------------------|-----------------|
Db|------------------|------6-7-6-2-|-7-7-7-7-7-7-7-7\-|------4-6-7-6----|
Bb|------------------|--------------|------------------|-----------------|


    E E E E E E E E      H  E E E E   E E E E E E E E    E E E E E E E E
Gb|------------------|--------------|------------------|-----------------|
Db|------------------|--------------|------------------|-----------------|
Ab|------------------|------------2-|------------------|-4-4-4-4---------|
Db|-4-4-4-4-4-4-4-4\-|------1-2-1---|-2-2-2-2-1-1-1-1--|---------4-4-4-4-|
Bb|------------------|--------------|------------------|-----------------|


And there it is, I'll probably add the chords on later.
Thanks,
-Jay Logan (Subbliminal@DONTSPAM@hotmail.com) Just remove the 'DONTSPAM of course.

comments
print report bad tab
4 comments total. Showing first comments.
0 reply
Operator (CA) wrote on January 14 2006, 11:07 pm

Awesome tab man. 5 stars.

0 reply
Subbliminal wrote on January 15 2006, 10:05 am

Thanks, I've been working on this one for a while. I have the whole song done except for the chorus. In the Chorus I can only tell the first two chords but the rest is so mixed up it is hard to tell.
Thanks for the comment though, love those heh:)

0 reply
Operator (CA) wrote on August 2 2006, 02:35 pm

I just can't figure out the pattern for the verses... Is the bass tuning A#1 C#2 G#2 C#3 F#3 is the same thing than Bb Db Ab Db Gb?

I want to post or [tab]
guest
You may want to rate the tab now too:
select rating
Please do not post tabs as comments. Select "correction" instead!