Oops, an error
Loading. Please wait.

Land Of Confusion Tab

version 1
version 1
53,202 views 24 this week
4 commentsread comments
1 2 3 4 5
x 6
add to favorites
launch autoscroll
font size
0
reset
how to read this tab
guitar tuner
Autoscroll
slow
fast
+/-
esc
set tempo
stop
Help us to improve Ultimate-Guitar.com Take our survey!
×
Author
Difficulty
Tuning
intermediate
C# G# C# F# A# D#
Guitar 1 (C# G# C# F# A# D#) - 'Guitar 1'
Guitar 2 (C# G# C# F# A# D#) - 'Guitar 2'
Guitar 2I (C# G# C# F# A# D#) - 'Lead Guitar'
Guitar 1V (E A D G B E) - 'Untitled'

[Intro]
Q=114
4/4
(Guitar 1)
      E   S S E   E   E   E   E   E     E   S S E   E   E   E   E   E
D#|----------------------------------|---------------------------------|
A#|o---------------------------------|---------------------------------|
F#|----------------------------------|---------------------------------|
C#|------------------7---------------|-----------------7---------------|
G#|o---------7---------------7-------|---------7---------------7-------|
C#|------7-7-----7-------7-------7---|-----7-7-----7-------7-------7---|

[Guitar 2]
     S S S S S S S S S S S S S S S S   S S S S S S S S S S S S S S S S
D#|----------------------------------|---------------------------------|
A#|o---------------------------------|---------------------------------|
F#|----------------------------------|---------------------------------|
C#|--6-6-6-6-6-6-6-6-6-6-6-6-6-6-6-6-|-6-6-6-6-6-6-6-6-6-6-6-6-6-6-6-6-|
G#|o---------------------------------|---------------------------------|
C#|----------------------------------|---------------------------------|

    E   S S E   E   E   E   E   E     E   S S E   E   E   E   E   E
D#|---------------------------------|-------------------------------------|
A#|---------------------------------|------------------------------------o|
F#|---------------------------------|-------------------------------------|
C#|-----------------7---------------|-----------------7-------------------|
G#|---------7---------------7-------|---------7---------------7----------o|
C#|-----7-7-----7-------7-------7---|-----7-7-----7-------7-------7-------|

    S S S S S S S S S S S S S S S S   S S S S S S S S S S S S S S S S
D#|---------------------------------|-------------------------------------|
A#|---------------------------------|------------------------------------o|
F#|---------------------------------|-------------------------------------|
C#|-5-5-5-5-5-5-5-5-5-5-5-5-5-5-5-5-|-5-5-5-5-5-5-5-5-5-5-5-5-5-5-5-5-----|
G#|---------------------------------|------------------------------------o|
C#|---------------------------------|-------------------------------------|

[Verse 1]
    PM--------------------------------------------------------------------
    S S  E S  S S S S S S S S S S S   S  S S S S S S S S S S S  S S  S S
D#|---------------------------------|------------------------------------|
A#|---------------------------------|------------------------------------|
F#|---------------------------------|------------------------------------|
C#|---------------------------------|------------------------------------|
G#|---------------------------------|------------------------------------|
C#|-2-2----2--2-2---2---2-2---2-2---|-2--2---2-2-2-2---2---2-2----2--2---|

    E    E Q        H                 H.                        E    E
D#|---------------------------------|------------------------------------|
A#|---------------------------------|------------------------------------|
F#|---------------------------------|------------------------------------|
C#|-7---/9-9\-----------------------|--------------------------12---12---|
G#|-5---/7-7\-----------------------|--------------------------10---10---|
C#|---------------------------------|------------------------------------|

     S S   E  S  S S S S S S S S S S S   S  S S S S S S S S S S S S S S S
D#|------------------------------------|-------------------------------------|
A#|------------------------------------|-------------------------------------|
F#|------------------------------------|-------------------------------------|
C#|------------------------------------|-------------------------------------|
G#|------------------------------------|-------------------------------------|
C#|--7-7------7--7-7---7---7-7---7-7---|-7--7---7-7-7-7---7---7-7---7-7------|

     E     E  Q        H                 H.                       E   E
D#|------------------------------------|-------------------------------------|
A#|------------------------------------|-------------------------------------|
F#|------------------------------------|-------------------------------------|
C#|-12---/14-14\-----------------------|--------------------------5---5------|
G#|-10---/12-12\-----------------------|--------------------------3---3------|
C#|------------------------------------|-------------------------------------|

    PM------------------------------------------------------------------
    S S  E S  S S S S S S S S S S S   S  S S S S S S S S S S S S S S S
D#|---------------------------------|----------------------------------|
A#|---------------------------------|----------------------------------|
F#|---------------------------------|----------------------------------|
C#|---------------------------------|----------------------------------|
G#|-5-5----5--5-5---5---5-5---5-5---|-5--5---5-5-5-5---5---5-5---5-5---|
C#|---------------------------------|----------------------------------|

    E    E Q        H                 H.                       E   E
D#|---------------------------------|----------------------------------|
A#|---------------------------------|----------------------------------|
F#|---------------------------------|----------------------------------|
C#|-5---/7-7\-----------------------|--------------------------7---7---|
G#|-3---/5-5\-----------------------|--------------------------5---5---|
C#|---------------------------------|----------------------------------|


 ------------------------------------------------------------------|
  S S  E S  S S S S S S S S S S S   S  S S S S S S S S S S S S S S S
D#|---------------------------------|-------------------------------------|
A#|---------------------------------|-------------------------------------|
F#|---------------------------------|-------------------------------------|
C#|---------------------------------|-------------------------------------|
G#|---------------------------------|-------------------------------------|
C#|-2-2----2--2-2---2---2-2---2-2---|-2--2---2-2-2-2---2---2-2---2-2------|

    E    E Q        H                 H.                       E   E
D#|---------------------------------|-------------------------------------|
A#|---------------------------------|-------------------------------------|
F#|---------------------------------|-------------------------------------|
C#|-7---/9-9\-----------------------|--------------------------7---7------|
G#|-5---/7-7\-----------------------|--------------------------5---5------|
C#|---------------------------------|-------------------------------------|

[2nd half verse 1, Verse 2]
    $
    PM--------------------------------------------------------------------
    S S  E S  S S S S S S S S S S S   S  S S S S S S S S S S S  S S  S S
D#|---------------------------------|------------------------------------|
A#|---------------------------------|------------------------------------|
F#|---------------------------------|------------------------------------|
C#|---------------------------------|------------------------------------|
G#|---------------------------------|------------------------------------|
C#|-2-2----2--2-2---2---2-2---2-2---|-2--2---2-2-2-2---2---2-2----2--2---|

    E    E Q        H                 H.                        E    E
D#|---------------------------------|------------------------------------|
A#|---------------------------------|------------------------------------|
F#|---------------------------------|------------------------------------|
C#|-7---/9-9\-----------------------|--------------------------12---12---|
G#|-5---/7-7\-----------------------|--------------------------10---10---|
C#|---------------------------------|------------------------------------|

     S S   E  S  S S S S S S S S S S S   S  S S S S S S S S S S S S S S S
D#|------------------------------------|-------------------------------------|
A#|------------------------------------|-------------------------------------|
F#|------------------------------------|-------------------------------------|
C#|------------------------------------|-------------------------------------|
G#|------------------------------------|-------------------------------------|
C#|--7-7------7--7-7---7---7-7---7-7---|-7--7---7-7-7-7---7---7-7---7-7------|

    E     E  Q        H                 H.                       E   E
D#|------------------------------------|-------------------------------------|
A#|------------------------------------|-------------------------------------|
F#|------------------------------------|-------------------------------------|
C#|-12---/14-14\-----------------------|--------------------------5---5------|
G#|-10---/12-12\-----------------------|--------------------------3---3------|
C#|------------------------------------|-------------------------------------|

    PM------------------------------------------------------------------
    S S  E S  S S S S S S S S S S S   S  S S S S S S S S S S S S S S S
D#|---------------------------------|----------------------------------|
A#|---------------------------------|----------------------------------|
F#|---------------------------------|----------------------------------|
C#|---------------------------------|----------------------------------|
G#|-5-5----5--5-5---5---5-5---5-5---|-5--5---5-5-5-5---5---5-5---5-5---|
C#|---------------------------------|----------------------------------|

    E    E Q        H                 H.                       E   E
D#|---------------------------------|----------------------------------|
A#|---------------------------------|----------------------------------|
F#|---------------------------------|----------------------------------|
C#|-5---/7-7\-----------------------|--------------------------7---7---|
G#|-3---/5-5\-----------------------|--------------------------5---5---|
C#|---------------------------------|----------------------------------|

    S S  E S  S S S S S S S S S S S   S S S S S S S S S S S S S S S S
D#|---------------------------------|------------------------------------|
A#|---------------------------------|------------------------------------|
F#|---------------------------------|------------------------------------|
C#|---------------------------------|------------------------------------|
G#|---------------------------------|------------------------------------|
C#|-2-2----2--2-2---2---2-2---2-2---|-2-2---2-2-2-2---2---2-2---2-2------|

    E    E Q        H                 W
D#|---------------------------------|------------------------------------|
A#|---------------------------------|------------------------------------|
F#|---------------------------------|------------------------------------|
C#|-7---/9-9\-----------------------|------------------------------------|
G#|-5---/7-7\-----------------------|------------------------------------|
C#|---------------------------------|------------------------------------|

[Pre-Chorus]
      Q.   E +H       Q.   E +H       Q.   E +H       Q.   E +H
D#|----------------|---------------|---------------|----------------|
A#|o---------------|---------------|---------------|---------------o|
F#|----------------|---------------|---------------|----------------|
C#|--0----2-(2)----|-5----7-(7)----|-0----2-(2)----|-5----0-(0)-----|
G#|o-0----2-(2)----|-5----7-(7)----|-0----2-(2)----|-5----0-(0)----o|
C#|--0----2-(2)----|-5----7-(7)----|-0----2-(2)----|-5----0-(0)-----|

[Chorus]
                             PM-|                                PM-|
      Q.    E  +H        +E  Q  E Q  Q    Q.    E  +H        +E  Q  E Q  Q
D#|------------------|-----------------|-----------------|-------------------|
A#|o-----------------|-----------------|-----------------|------------------o|
F#|------------------|-----------------|-----------------|-------------------|
C#|--9----10-(10)----|-(10)------4--7--|-9----10-(10)----|-(10)------4--7----|
G#|o-7-----7--(7)----|--(7)-0--0-2--5--|-7-----7--(7)----|--(7)-0--0-2--5---o|
C#|------------------|------0--0-------|-----------------|------0--0---------|

    E   S S E   E   E   E   E   E     E   S S E   E   E   E   E   E
D#|---------------------------------|---------------------------------|
A#|---------------------------------|---------------------------------|
F#|---------------------------------|---------------------------------|
C#|-----------------7---------------|-----------------7---------------|
G#|---------7---------------7-------|---------7---------------7-------|
C#|-----7-7-----7-------7-------7---|-----7-7-----7-------7-------7---|

[Guitar 2]
    S S S S S S S S S S S S S S S S   S S S S S S S S S S S S S S S S
D#|---------------------------------|---------------------------------|
A#|---------------------------------|---------------------------------|
F#|---------------------------------|---------------------------------|
C#|-6-6-6-6-6-6-6-6-6-6-6-6-6-6-6-6-|-6-6-6-6-6-6-6-6-6-6-6-6-6-6-6-6-|
G#|---------------------------------|---------------------------------|
C#|---------------------------------|---------------------------------|

                                                                  D.S.
                                                                  D.S.
    E   S S E   E   E   E   E   E     E   S S E   E   E   E   E   E
D#|---------------------------------|----------------------------------|
A#|---------------------------------|----------------------------------|
F#|---------------------------------|----------------------------------|
C#|-----------------7---------------|-----------------7----------------|
G#|---------7---------------7-------|---------7---------------7--------|
C#|-----7-7-----7-------7-------7---|-----7-7-----7-------7-------7----|

    S S S S S S S S S S S S S S S S   S S S S S S S S S S S S S S S S
D#|---------------------------------|----------------------------------|
A#|---------------------------------|----------------------------------|
F#|---------------------------------|----------------------------------|
C#|-5-5-5-5-5-5-5-5-5-5-5-5-5-5-5-5-|-5-5-5-5-5-5-5-5-5-5-5-5-5-5-5-5--|
G#|---------------------------------|----------------------------------|
C#|---------------------------------|----------------------------------|

[Interlude]
    $$
    PM------------------------------------------------------------------|
    E E E E E E E E   E E E E E E E E   E E E E E E E E   E E E E E E E E
D#|------------------|-----------------|-----------------|------------------|
A#|o-----------------|-----------------|-----------------|------------------|
F#|------------------|-----------------|-----------------|------------------|
C#|----4-6---4-6-----|-6-----4---------|---4-6---4-6-----|-6-----4-------4--|
G#|o-4-----7-----6-7-|---6-7---6-7-6-2-|-4-----7-----6-7-|---6-7---4-6-7----|
C#|------------------|-----------------|-----------------|------------------|

  PM------------------------------|
  E E E E E E E E   E E E E E E E E   H    H      H    H
D#|-----------------|-----------------|-----------|------------|
A#|-----------------|-----------------|-----------|-----------o|
F#|-----------------|-----------------|-----------|-6----------|
C#|---4-6---4-6-----|-6-----4---------|-2----1----|-6----4-----|
G#|-4-----7-----6-7-|---6-7---6-7-6-2-|-2----1----|-4----4----o|
C#|-----------------|-----------------|-2----1----|------4-----|

    W          +W
D#|----------|--------|
A#|----------|--------|
F#|-2--------|-(2)----|
C#|-2--------|-(2)----|
G#|-0--------|-(0)----|
C#|----------|--------|

[Solo]
   PM-------------------------------------------------------------|
   S  S S S S S S S S S S S  Q     S S S S S S S S  S S S S S S S S
D#|-------------------------------|-----------------------------------|
A#|-------------------------------|-----------------------------------|
F#|-------------------------------|-----------------------------------|
C#|-------------------------------|-----------------------------------|
G#|--3--3---3---3-3---3---3-------|--3-3---3---3-3----3-3-3---3-3-3---|
C#|-------------------------------|-----------------------------------|

[Guitar 2]
     H.                        Q     H                H
D#|-------------------------------|-----------------------------------|
A#|-------------------------------|-----------------------------------|
F#|-12------------------------12--|-11--------------------------------|
C#|-------------------------------|------------------12---------------|
G#|-------------------------------|-----------------------------------|
C#|-------------------------------|-----------------------------------|

   PM---------------------------------------------------------------|
   S  S S S S S S S S S S S  Q     S S S S S S S S  S  S S S S S  S S
D#|-------------------------------|-------------------------------------|
A#|-------------------------------|-------------------------------------|
F#|-------------------------------|-------------------------------------|
C#|-------------------------------|-------------------------------------|
G#|--3--3---3---3-3---3---3-------|--3-3---3---3-3----3--3-3---3-3--3---|
C#|-------------------------------|-------------------------------------|

     H.                        Q     H                Q.            E
D#|-------------------------------|-------------------------------------|
A#|-------------------------------|--------------------------------12---|
F#|-------------------------------|-11----------------------------------|
C#|-10------------------------10--|------------------12-----------------|
G#|-------------------------------|-------------------------------------|
C#|-------------------------------|-------------------------------------|

[Guitar 1]
     PM------------------------------------------
     S S  S  S S  S  S  S  S S  S  S Q
D#|---------------------------------------------|
A#|---------------------------------------------|
F#|---------------------------------------------|
C#|---------------------------------------------|
G#|--3-3-----3----3--3-----3----3---------------|
C#|---------------------------------------------|

[Guitar 2]
     W
D#|---------------------------------------------|
A#|---------------------------------------------|
F#|---------------------------------------------|
C#|--5------------------------------------------|
G#|--3------------------------------------------|
C#|---------------------------------------------|

[Guitar 2]
     E    S  E    S  S  S  E    S  E    S  S  S
D#|-15------14------------15------14------------|
A#|------12------12-15-12------12------12-15-12-|
F#|---------------------------------------------|
C#|---------------------------------------------|
G#|---------------------------------------------|
C#|---------------------------------------------|

     S S  S  S S  S  S  S  S S  S  S S  S  S  S
D#|---------------------------------------------|
A#|---------------------------------------------|
F#|---------------------------------------------|
C#|---------------------------------------------|
G#|--3-3-----3----3--3-----3-3--3----3--3--3----|
C#|---------------------------------------------|

     W
D#|---------------------------------------------|
A#|---------------------------------------------|
F#|---------------------------------------------|
C#|--4------------------------------------------|
G#|--3------------------------------------------|
C#|---------------------------------------------|

     E    S  E    S  S  S  E    S  E    S  S  S
D#|-15------14------------15------14------------|
A#|------12------12-15-12------12------12-15-12-|
F#|---------------------------------------------|
C#|---------------------------------------------|
G#|---------------------------------------------|
C#|---------------------------------------------|

     S    S     S    S     S    S     S    S     S    S     S    S     Q
D#|-------------------------------------------------------------------------------------|
A#|-------------------------------------------------------------------------------------|
F#|-------------------------------------------------------------------------------------|
C#|-------------------------------------------------------------------------------------|
G#|--3----3----------3----------3-----3----------3----------3---------------------------|
C#|-------------------------------------------------------------------------------------|

    W
D#|-------------------------------------------------------------------------------------|
A#|-------------------------------------------------------------------------------------|
F#|-------------------------------------------------------------------------------------|
C#|--5----------------------------------------------------------------------------------|
G#|--3----------------------------------------------------------------------------------|
C#|-------------------------------------------------------------------------------------|

   |--------6---------|  |--------6---------|  |--------6---------|  |------6-------|
   S  S    S  S  S    S  S  S    S  S  S    S  S  S    S  S  S    S  S  S  S  S  S  S
D#|-12h15p==12------------12h15p==12------------12h15p==12------------12h15p12----------|
A#|------------15p12h==15------------15p12h==15------------15p12h==15----------15p12h15-|
F#|-------------------------------------------------------------------------------------|
C#|-------------------------------------------------------------------------------------|
G#|-------------------------------------------------------------------------------------|
C#|-------------------------------------------------------------------------------------|

     S    S     S    S     S    S     S    S     S    S     S    S     S    S     S    S
D#|--------------------------------------------------------------------------------------------|
A#|--------------------------------------------------------------------------------------------|
F#|--------------------------------------------------------------------------------------------|
C#|--------------------------------------------------------------------------------------------|
G#|--3----3----------3----------3-----3----------3----3-----3----------3----3-----3------------|
C#|--------------------------------------------------------------------------------------------|

     W
D#|--------------------------------------------------------------------------------------------|
A#|--------------------------------------------------------------------------------------------|
F#|--------------------------------------------------------------------------------------------|
C#|--4-----------------------------------------------------------------------------------------|
G#|--3-----------------------------------------------------------------------------------------|
C#|--------------------------------------------------------------------------------------------|

  |--------6---------|  |--------6---------|  |--------6---------|  |--------6---------|
   S  S    S  S  S    S  S  S    S  S  S    S  S  S    S  S  S    S  S  S    S  S  S    S
D#|--------------------------------------------------------------------------------------------|
A#|-12h13h==15p13p12------12h13p==12-----------------------------------------------------------|
F#|--------------------14------------14p12------12h14p==12-------------------------------------|
C#|------------------------------------------14------------14p12------12h14p==12---------------|
G#|----------------------------------------------------------------14------------14p12h==14----|
C#|--------------------------------------------------------------------------------------------|

     E E H.                  +W
D#|------------------------|------------------------------|
A#|------------------------|------------------------------|
F#|------------------------|------------------------------|
C#|--7s9-9-----------------|-(9)--------------------------|
G#|--5-7-7-----------------|-(7)--------------------------|
C#|------------------------|------------------------------|

                                   |--3--|
   H        +E   E  +Q      Q      S  S  S  Q.    Q
D#|------------------------|-----------------19----22b24--|
A#|---------------17-(17)--|-17b19------------------------|
F#|------------------------|------------------------------|
C#|-14-------(14)----------|--------14s12s14--------------|
G#|------------------------|------------------------------|
C#|------------------------|------------------------------|

[Verse 3]
    PM--------------------------------------------------------------------
    S S  E S  S S S S S S S S S S S   S  S S S S S S S S S S S  S S  S S
D#|---------------------------------|------------------------------------|
A#|---------------------------------|------------------------------------|
F#|---------------------------------|------------------------------------|
C#|---------------------------------|------------------------------------|
G#|---------------------------------|------------------------------------|
C#|-2-2----2--2-2---2---2-2---2-2---|-2--2---2-2-2-2---2---2-2----2--2---|

    E    E Q        H                 H.                        E    E
D#|---------------------------------|------------------------------------|
A#|---------------------------------|------------------------------------|
F#|---------------------------------|------------------------------------|
C#|-7---/9-9\-----------------------|--------------------------12---12---|
G#|-5---/7-7\-----------------------|--------------------------10---10---|
C#|---------------------------------|------------------------------------|

     S S   E  S  S S S S S S S S S S S   S  S S S S S S S S S S S S S S S
D#|------------------------------------|-------------------------------------|
A#|------------------------------------|-------------------------------------|
F#|------------------------------------|-------------------------------------|
C#|------------------------------------|-------------------------------------|
G#|------------------------------------|-------------------------------------|
C#|--7-7------7--7-7---7---7-7---7-7---|-7--7---7-7-7-7---7---7-7---7-7------|

     E     E  Q        H                 H.                       E   E
D#|------------------------------------|-------------------------------------|
A#|------------------------------------|-------------------------------------|
F#|------------------------------------|-------------------------------------|
C#|-12---/14-14\-----------------------|--------------------------5---5------|
G#|-10---/12-12\-----------------------|--------------------------3---3------|
C#|------------------------------------|-------------------------------------|

    PM------------------------------------------------------------------
    S S  E S  S S S S S S S S S S S   S  S S S S S S S S S S S S S S S
D#|---------------------------------|----------------------------------|
A#|---------------------------------|----------------------------------|
F#|---------------------------------|----------------------------------|
C#|---------------------------------|----------------------------------|
G#|-5-5----5--5-5---5---5-5---5-5---|-5--5---5-5-5-5---5---5-5---5-5---|
C#|---------------------------------|----------------------------------|

    E    E Q        H                 H.                       E   E
D#|---------------------------------|----------------------------------|
A#|---------------------------------|----------------------------------|
F#|---------------------------------|----------------------------------|
C#|-5---/7-7\-----------------------|--------------------------7---7---|
G#|-3---/5-5\-----------------------|--------------------------5---5---|
C#|---------------------------------|----------------------------------|

    S S  E S  S S S S S S S S S S S   S S S S S S S S S S S S S S S S
D#|---------------------------------|------------------------------------|
A#|---------------------------------|------------------------------------|
F#|---------------------------------|------------------------------------|
C#|---------------------------------|------------------------------------|
G#|---------------------------------|------------------------------------|
C#|-2-2----2--2-2---2---2-2---2-2---|-2-2---2-2-2-2---2---2-2---2-2------|

    E    E Q        H                 W
D#|---------------------------------|------------------------------------|
A#|---------------------------------|------------------------------------|
F#|---------------------------------|------------------------------------|
C#|-7---/9-9\-----------------------|------------------------------------|
G#|-5---/7-7\-----------------------|------------------------------------|
C#|---------------------------------|------------------------------------|

[Pre-Chorus]
      Q.   E +H       Q.   E +H       Q.   E +H       Q.   E +H
D#|----------------|---------------|---------------|----------------|
A#|o---------------|---------------|---------------|---------------o|
F#|----------------|---------------|---------------|----------------|
C#|--0----2-(2)----|-5----7-(7)----|-0----2-(2)----|-5----0-(0)-----|
G#|o-0----2-(2)----|-5----7-(7)----|-0----2-(2)----|-5----0-(0)----o|
C#|--0----2-(2)----|-5----7-(7)----|-0----2-(2)----|-5----0-(0)-----|

[Chorus]
                             PM-|                                PM-|
      Q.    E  +H        +E  Q  E Q  Q    Q.    E  +H        +E  Q  E Q  Q    4x
D#|------------------|-----------------|-----------------|-------------------|
A#|o-----------------|-----------------|-----------------|------------------o|
F#|------------------|-----------------|-----------------|-------------------|
C#|--9----10-(10)----|-(10)------4--7--|-9----10-(10)----|-(10)------4--7----|
G#|o-7-----7--(7)----|--(7)-0--0-2--5--|-7-----7--(7)----|--(7)-0--0-2--5---o|
C#|------------------|------0--0-------|-----------------|------0--0---------|

    E   S S E   E   E   E   E   E     E   S S E   E   E   E   E   E
D#|---------------------------------|---------------------------------|
A#|---------------------------------|---------------------------------|
F#|---------------------------------|---------------------------------|
C#|-----------------7---------------|-----------------7---------------|
G#|---------7---------------7-------|---------7---------------7-------|
C#|-----7-7-----7-------7-------7---|-----7-7-----7-------7-------7---|

[Guitar 2]
    S S S S S S S S S S S S S S S S   S S S S S S S S S S S S S S S S
D#|---------------------------------|---------------------------------|
A#|---------------------------------|---------------------------------|
F#|---------------------------------|---------------------------------|
C#|-6-6-6-6-6-6-6-6-6-6-6-6-6-6-6-6-|-6-6-6-6-6-6-6-6-6-6-6-6-6-6-6-6-|
G#|---------------------------------|---------------------------------|
C#|---------------------------------|---------------------------------|

    E   S S E   E   E   E   E   E     E   S S E   E   E   E   E   E
D#|---------------------------------|----------------------------------*|
A#|---------------------------------|----------------------------------*|
F#|---------------------------------|----------------------------------*|
C#|-----------------7---------------|-----------------7----------------*|
G#|---------7---------------7-------|---------7---------------7--------*|
C#|-----7-7-----7-------7-------7---|-----7-7-----7-------7-------7----*|

    S S S S S S S S S S S S S S S S   S S S S S S S S S S S S S S S S
D#|---------------------------------|----------------------------------*|
A#|---------------------------------|----------------------------------*|
F#|---------------------------------|----------------------------------*|
C#|-5-5-5-5-5-5-5-5-5-5-5-5-5-5-5-5-|-5-5-5-5-5-5-5-5-5-5-5-5-5-5-5-5--*|
G#|---------------------------------|----------------------------------*|
C#|---------------------------------|----------------------------------*|


************************************

| PM   Palm mute
| /    Slide up
| \    Slide down
| (n)  Ghost note
| h    Hammer-on
| p    Pull-off
| b    Bend
| *    Natural harmonic

************************************
Suggest correction
comments
print report bad tab
4 comments total. Showing first comments.
0 reply
10kf.iskickass 444 Mar 16, 2007 02:56 PM

pretty good, but in the solo he uses harmonics towards the end

0 reply
Operator (CA) 715 Mar 16, 2007 08:29 PM

^true, it's 7 and 5 on the high e string

0 reply
cjdabest 355 Sep 08, 2009 07:23 PM

Very nice man! 5 stars...I wish someone could figure out the weird hidden guitar behind the chorus...

guest
You may want to rate the tab now too:
select rating
Wanna post a correction for this tab? Suggest correction