Oops, an error
Loading. Please wait.

Land Of Confusion Bass Tab

version 2
version 2

Whole song

12,862 views 12 this week
1 commentread comment
1 2 3 4 5
accurate
x 4
add to favorites
launch autoscroll
font size
0
reset
guitar tuner
Tab Pro tools
  • play this tab
  • loop segment
  • change instrument
  • show fretboard
  • metronome
×
Best way to learn
"Land Of Confusion"
Autoscroll
slow
fast
+/-
esc
set tempo
stop
Difficulty
novice
00:01
Intro
 F|---3---|
 C|-3---3-|
 G|1-1-1-1| x8
 C|-------|

00:17
Verse
 F|-------------------------------------------------------------|
 C|333-33-33-3-33-3333-33-33-3-33-3-----------------------------|
 G|---------------------------------111-11-11-1-11-1111-11-11-1-|
 C|-------------------------------------------------------------|

 F|-------------------------------------------------------------|
 C|------------------------------------1-333-33-33-3-33-3333-33-|
 G|11-1-444-44-44-4-44-4444-44-4-44-44--------------------------|
 C|-------------------------------------------------------------|

 F|---------|
 C|33-3-33-3|
 G|---------| x2
 C|---------|

00:51
Chorus
 F|---------------------------------------|
 C|---------------------------------------|
 G|----------111-33333-----------111------| x2
 C|111-33333-----------111-33333-----11111|

1:07
After Chorus
 F|------------------------------|
 C|333-33-33-3-33-3333-33-33----1|
 G|--------------------------33--| x4
 C|------------------------------|

 F|---3---|
 C|-3---3-|
 G|1-1-1-1| x4
 C|-------|

1:33
Verse
 F|-------------------------------------------------------------|
 C|333-33-33-3-33-3333-33-33-3-33-3-----------------------------|
 G|---------------------------------111-11-11-1-11-1111-11-11-1-|
 C|-------------------------------------------------------------|

 F|-------------------------------------------------------------|
 C|------------------------------------1-333-33-33-3-33-3333-33-|
 G|11-1-444-44-44-4-44-4444-44-4-44-44--------------------------|
 C|-------------------------------------------------------------|

 F|---------|
 C|33-3-33-3|
 G|---------|
 C|---------|

1:50
Chorus
 F|---------------------------------------|
 C|---------------------------------------|
 G|----------111-33333-----------111------| x2
 C|111-33333-----------111-33333-----11111|

2:06
After Chorus
 F|------------------------------|
 C|333-33-33-3-33-3333-33-33----1|
 G|--------------------------33--| x4
 C|------------------------------|

 F|---3---|
 C|-3---3-|
 G|1-1-1-1| x4
 C|-------|

2:31
Bridge
 F|--------------------------------------------------------------|
 C|--------------------------------------------------------------|
 G|555-513555-5-513-333-3--333-3-3--333-------------------3333-2-|
 C|-------------------------------------444-413444-4-4134--------|

 G|--------------|
 D|--------------|
Ab|222-5555------|
Db|---------5-5-5|

 F|--------------------------------------------------------------|
 C|--------------------------------------------------------------|
 G|555-513555-5-513-333-3--333-3-3--333-------------------3333-2-|
 C|-------------------------------------444-413444-4-4134--------|

 F|------------------------------|:---------------------------:|
 C|---------4444-1111111111111111|:44-4-44-44--44-4-44-444-444:|
 G|222-5555----------------------|:---------------------------:| x4
 C|------------------------------|:---------------------------:|

 F|-----------------|
 C|-----------------|
 G|68888888888888888|
 C|-----------------|

3:30
Verse
 F|-------------------------------------------------------------|
 C|333-33-33-3-33-3333-33-33-3-33-3-----------------------------|
 G|---------------------------------111-11-11-1-11-1111-11-11-1-|
 C|-------------------------------------------------------------|

 F|-------------------------------------------------------------|
 C|------------------------------------1-333-33-33-3-33-3333-33-|
 G|11-1-444-44-44-4-44-4444-44-4-44-44--------------------------|
 C|-------------------------------------------------------------|

 F|---------|
 C|33-3-33-3|
 G|---------|
 C|---------|

3:46
Chorus
 F|---------------------------------------|
 C|---------------------------------------|
 G|----------111-33333-----------111------| x2
 C|111-33333-----------111-33333-----11111|

4:03
After Chorus
 F|------------------------------|
 C|333-33-33-3-33-3333-33-33----1|
 G|--------------------------33--| x8
 C|------------------------------|

 F|---3---|
 C|-3---3-|
 G|1-1-1-1| x4
 C|-------|
comments
print report bad tab
1 comment total.
0 reply
xeagl wrote on May 29 2008, 02:55 am

very nice tab:)

I want to post or [tab]
guest
You may want to rate the tab now too:
select rating
Please do not post tabs as comments. Select "correction" instead!