Oops, an error
Loading. Please wait.

Land Of Confusion Tab

version 3
version 3
101,657 views 114 this week
36 commentsread comments
1 2 3 4 5
x 51
add to favorites
launch autoscroll
font size
0
reset
how to read this tab
guitar tuner
Autoscroll
slow
fast
+/-
esc
set tempo
stop
Help us to improve Ultimate-Guitar.com Take our survey!
×
Author
Tuning
C# G# C# F# A# D#
Band: Disturbed
Song: Land of Confusion
Album: Ten Thousand Fists
Tuning: Drop Db (Drop D tuned down 1/2 step)
 
[Intro]
Two Guitars

  Guitar 1: 8X
D#|------------------------|
A#|------------------------|
F#|------------------------| 
C#|-----------7------------|
G#|-----7------------7-----|
C#|--7-----7-----7-7----7--|

  Guitar 2: (Less loud) 8X
D#|------------------------------------------------------------------|
A#|------------------------------------------------------------------|
F#|-6666666666666666666666666666666655555555555555555555555555555555-| 
C#|-XXXXXXXXXXXXXXXXXXXXXXXXXXXXXXXXXXXXXXXXXXXXXXXXXXXXXXXXXXXXXXXX-|
G#|-4444444444444444444444444444444433333333333333333333333333333333-|
C#|------------------------------------------------------------------|

[Verse]
Two Guitars

  Guitar 1: 2X
D#|------------|--------------------|-------------------|-------------------|
A#|------------|-8-8-8--8/10-10-10\-|-------------------|-------------------|
F#|-7/9--9--9\-|-X-X-X--X/X--X--X-\-|-5-5-5--5/7--7--7\-|-7-7-7--7\9--9--9\-|  
C#|-X/X--X--X\-|-5-5-5--5/7--7--7-\-|-X-X-X--X/X--X--X\-|-X-X-X--X/X--X--X\-|
G#|-5/7--7--7\-|--------------------|-3-3-3--3/5--5--5\-|-5-5-5--5/7--7--7\-|
C#|------------|--------------------|-------------------|-------------------|

  Guitar 2: (Palm Muted) (Play each segment twice) 2X 
D#|------------------|------------------|------------------|------------------|
A#|------------------|------------------|------------------|------------------|
F#|------------------|------------------|------------------|------------------|
C#|------------------|------------------|------------------|------------------|
G#|------------------|------------------|------------------|------------------|
C#|-222-22-22-22-222-|-777-77-77-77-777-|-000-00-00-00-000-|-222-22-22-22-222-|

[Chorus]

  Part 1: 2X
D#|-------|-------|-------|-------|
A#|-------|-------|-------|-------|
F#|-------|-------|-------|-------| 
C#|-0---2-|-5---7-|-0---2-|-5---0-|
G#|-0---2-|-5---7-|-0---2-|-5---0-|
C#|-0---2-|-5---7-|-0---2-|-5---0-|

  Part 2: 4X
D#|----------------------|
A#|----------------------|
F#|-9---9---9--------4-7-| 
C#|-9---10--10---0---4-7-|
G#|-7---7---7----0---2-5-|
C#|--------------0-------|

[Intro]
(Guitar 1: 4X) (Guitar 2: 1X)

[Verse]
(Guitar 1: 1X) (Guitar 2: 1X)

[Chorus]

[Intro]
(Guitar 1: 4X) (Guitar 2: 1X)

[Interlude]

D#|---------------------------------|---------------------------------|
A#|---------------------------------|---------------------------------|
F#|---------------------------------|---------------------------------|
C#|-----6-----6-----6---------------|-----6-----6-----6-------------6-|
G#|-7-9---7-9---6-7---6-7-9-6-7-6---|-7-9---7-9---6-7---6-7-9-6-7-9---|
C#|-------------------------------9-|---------------------------------|

D#|---------------------------------|---------------------------------|
A#|---------------------------------|---------------------------------|
F#|---------------------------------|-----------------6-6-6-6---------|
C#|-----6-----6-----6---------------|-2-2-2-2-1-1-1-1-6-6-6-6-4-4-4-4-|
G#|-7-9---7-9---6-7---6-7-9-6-7-6---|-2-2-2-2-1-1-1-1-4-4-4-4-4-4-4-4-|
C#|-------------------------------9-|-2-2-2-2-1-1-1-1---------4-4-4-4-|

D#|---------------------------------|---------------------------------|
A#|---------------------------------|---------------------------------|
F#|---------------------------------|---------------------------------|
C#|-----6-----6-----6---------------|-----6-----6-----6-------------6-|
G#|-7-9---7-9---6-7---6-7-9-6-7-6---|-7-9---7-9---6-7---6-7-9-6-7-9---|
C#|-------------------------------9-|---------------------------------|

D#|---------------------------------|---------------------------------|---|
A#|---------------------------------|---------------------------------|---|
F#|---------------------------------|-----------------6-6-6-6---------|-2-|
C#|-----6-----6-----6---------------|-2-2-2-2-1-1-1-1-6-6-6-6-4-4-4-4-|-2-|
G#|-7-9---7-9---6-7---6-7-9-6-7-6---|-2-2-2-2-1-1-1-1-4-4-4-4-4-4-4-4-|-0-|
C#|-------------------------------9-|-2-2-2-2-1-1-1-1---------4-4-4-4-|---|

[Solo]

  Part 1:
D#|---------------------------------------------------|
A#|---------------------------------------------------|
F#|-12~~~~~12~~11~~~~~------------------11~~~~~~------|
C#|-------------------12~~~~~10~~~~~10~~--------12~~~-|
G#|---------------------------------------------------|
C#|---------------------------------------------------|

  Part 2: after first note play 4X 
D#|-12-|-15--12--14-----------|
A#|----|-------------12-15-12-|
F#|----|----------------------|
C#|----|----------------------|
G#|----|----------------------|
C#|----|----------------------|

  Part 3:
D#|-15p14p12--------15p14p12--------15p14p12--------15p14p12---------|
A#|---------12h15p12--------12h15p12--------12h15p12--------12h15p12-|
F#|------------------------------------------------------------------|
C#|------------------------------------------------------------------|
G#|------------------------------------------------------------------|
C#|------------------------------------------------------------------|

D#|-----------------------------------------|
A#|-15b--13h15p13p12-12h13p12p10-10h12p10p8-|
F#|-----------------------------------------|
C#|-----------------------------------------|
G#|-----------------------------------------|
C#|-----------------------------------------|

D#|---------------------------------------------|
A#|-10b--8h10p8p7-7h8p7p5-5h7p5p3-7\3-3/5-5~~~~-|
F#|---------------------------------------------|
C#|---------------------------------------------|
G#|---------------------------------------------|
C#|---------------------------------------------|

D#|-12~~~~~-15~~~~~-(7)-----(5)---|
A#|-------------------------------|
F#|-------------------------------|
C#|-------------------------------|
G#|-------------------------------|
C#|-------------------------------|

[Verse]
(Guitar 1: 1X) (Guitar 2: 1X)

[Chorus]

[Chorus Part 2]
(Altered): 4X

D#|----------------------|
A#|----------------------|
F#|-9---9---XXX-X----4-7-| 
C#|-9---10--XXX-X--0-4-7-|
G#|-7---7---XXX-X--0-2-5-|
C#|----------------0-----|

[Intro]
(Guitar 1: 4X) (Guitar 2: 1X)



************************************

| /  Slide up
| \  Slide down
| ~  Vibrato
| p  Pull-off
| h  Hammer-on
| b  Bend 

************************************
Suggest correction
comments
print report bad tab
36 comments total. Showing first comments.
-1 reply
Pasko 112 May 20, 2006 08:24 AM

excellent Tabs, only on the bridge i'm not sure about the
Ab----6-7-6--------
Db----------9------

the last note sound strange -9-
except that everything is perfect
Pasko

-1 reply
aprescott_27 268 Oct 14, 2006 08:47 PM

Nice tab, sounds good.

0 reply
Rabid--Mutt91 60 Oct 30, 2006 06:06 PM

Um.... question. Im having trouble getting this right. it turns out to be pretty hard to do this here

(Chorus)

Part 2:

|----------------------|
|----------------------|
|-9---9---9--------4-7-|
|-9---10--10---0---4-7-|
|-7---7---7----0---2-5-|
|--------------0-------|
^ ^ ^
^ ^ ^

guest
You may want to rate the tab now too:
select rating
Wanna post a correction for this tab? Suggest correction