Oops, an error
Loading. Please wait.

Leave It Alone Tab

version 1
version 1

Whole song

Interactive

2,222 views 3 this week
no commentswrite comment
1 2 3 4 5
excellent!
x 3
add to favorites
launch autoscroll
font size
0
reset
how to read this tab
guitar tuner
Tab Pro tools
  • play this tab
  • loop segment
  • change instrument
  • show fretboard
  • metronome
×
Best way to learn
"Leave It Alone"
Autoscroll
slow
fast
+/-
esc
set tempo
stop
Contributor
Difficulty
Tuning
intermediate
C G C F A D
Leave It Alone by Disturbed.  Drop C.   All credit goes to yanksandjetsfan.

Intro (Play twice)
D-----------------------------------------|
A-----------------------------------------|
F-----------------------------------------|
C-2-0-0-3-0-0-2-0-2-3-2-0-0-3-0-3-2-0-3-0-|
G-2-0-0-3-0-0-2-0-2-3-2-0-0-3-0-3-2-0-1-0-|
C-2-0-0-3-0-0-2-0-2-3-2-0-0-3-0-3-2-0---0-|
    * *   * *   *       * *   * * * *      (palm muting)
D-------------------------------------|
A-------------------------------------|
F-------------------------------------|
C-2-0-0-3-0-0-2-0-2-3-4-0-0-3-0-0-2-3-|
G-2-0-0-3-0-0-2-0-2-3-2-0-0-1-0-0-2-3-|
C-2-0-0-3-0-0-2-0-2-3---0-0---0-0-2-3-|
    * *   * *   *       * *   * *
Verse (Play twice)
D---------*-*---------*-*-----------------------------------------|
A-----------------------------------------------------------------|
F-----------------------------------------------------------------|
C-2-2-2-2---5-2-2-2-2-----2-2-2-2---2---2-0-2-0-5---5-5-4-4-5-5-2-|
G-2-2-2-2-5---2-2-2-2---5-2-2-2-2---2---2-0-2-0-3---3-3-3-3-5-5-2-|
C-2-2-2-2-----2-2-2-2-5---2-2-2-2---2---2-0-2-0-------------5-5-2-|
    (note harmonics)
D---------*-*---------*-*-----------------------------------------|
A-----------------------------------------------------------------|
F-----------------------------------------------------------------|
C-2-2-2-2---5-2-2-2-2-----2-2-2-2---2---2-0-2-0-5---5-5-4-4-7-7-5-|
G-2-2-2-2-5---2-2-2-2---5-2-2-2-2---2---2-0-2-0-3---3-3-3-3-5-5-5-|
C-2-2-2-2-----2-2-2-2-5---2-2-2-2---2---2-0-2-0-----------------5-|

Pre-chorus
D--------------------------------|
A--------------------------------|
F--------------------------------|
C-7--------------------------x-5-|
G-7--------------------------x-5-|
C-7--------------------------x-5-|

Chorus (Play twice)
D---------------------------------------------------------------|
A---------------------------------------------------------------|
F---------------------------------------------------------------|
C-2-2-2-5-5-5-2-2-2-3-3-3-2-3-2-1-----------------1-1-1-1-1-1-1-|
G-2-2-2-3-3-3-2-2-2-1-1-1-2-3-2-1-----------------1-1-1-1-1-1-1-|
C-2-2-2-------2-2-2-------2-3-2-1-----------------1-1-1-1-1-1-1-|
                                                  * * * * * * * (palm mute)
D--------------------------------------------------------------|
A--------------------------------------------------------------|
F--------------------------------------------------------------|
C-2-2-2-5-5-5-2-2-2-3-3-3-2-3-2-1-----------------5-------8----|
G-2-2-2-3-3-3-2-2-2-1-1-1-2-3-2-1-----------------5-------8----|
C-2-2-2-------2-2-2-------2-3-2-1-----------------5-------8----|

Intro
Verse
Pre-chorus
Chorus

Solo
D---------------------------------------------------------------|
A---------------------------------------------------------------|
F-9-------12--8-9-11---8-9-8---[8]------------------------------|
C-----9---------------------11------7------7-10-9---------------|
G---------------------------------------10----------------------|
C---------------------------------------------------------------|
                                                 (1.5 steps)
D---------------------------------------------------------------15-|
A---------------------------------------15^---12-17^-12-15-15-17---|
F-14^-14^16-16-16-14-12--------------------------------------------|
C-----------------------14--------12-14----------------------------|
G------------------------------14----------------------------------|
C------------------------------------------------------------------|

D-20-19----19-------17-14-------------------------------15-------|
A-------20----20-17-------15-----------17^-17---15^-15^----12----|
F----------------------------14-16-14----------------------------|
C----------------------------------------------------------------|
G----------------------------------------------------------------|
C----------------------------------------------------------------|

D--------------------------------------------------15----15-17^-15-|
A----------12-15-14-12----------15^-------17-17-17----17-----------|
F-12-14-15-------------12-14-12-----12-----------------------------|
C------------------------------------------------------------------|
G------------------------------------------------------------------|
C------------------------------------------------------------------|
(1.5 steps)
D-19^---19-18-17-15-17-17-17^-15-17-15----------------------------|
A-----------------------------------------------------------------|
F-----------------------------------------------------------------|
C-----------------------------------------------------------------|
G-----------------------------------------------------------------|
C-----------------------------------------------------------------|

Pre-chorus
Chorus
Intro
comments
We did not receive enough feedback on this tab! Please rate:
print report bad tab
1 2 3 4 5
I want to post or [tab]
guest
You may want to rate the tab now too:
select rating
Please do not post tabs as comments. Select "correction" instead!