Oops, an error
Loading. Please wait.

Liberate Bass Tab

version 2
version 2

Whole song

4,467 views 1 this week
1 commentread comment
1 2 3 4 5
please rate
add to favorites
launch autoscroll
font size
0
reset
guitar tuner
Autoscroll
slow
fast
+/-
esc
set tempo
stop
Help us to improve Ultimate-Guitar.com Take our survey!
×
Author
Difficulty
novice
Intro
Gb------------------------------|
Db------------------------------|  x7
Ab-2h4--4-4-4-4--4-4-4-2h4-4-4--|
Db------------------------------|


Gb-------------------------|
Db-------------------------|
Ab-2h4--4-4-4-4--4-4-4-5\--|
Db-------------------------|


Verse
Gb-----------------------------|
Db-----------------------------|
Ab-----------------------------|
Db-0-2-2-0-2--0h2-2-0h2-2-2----|


Gb-------------------------------------------------------|
Db-------------------------------------------------------|
Ab-------------------------------------------------------|
Db-2-3-3--3-3/8--8--8-8-8-8-8-0-2-2--0-2--0h2-2-0h2-2-2--|


Gb---------------------------|
Db---------------------------|
Ab---------------------------|
Db-0-2-2-0-2--0h2-2-0h2-2-2--|


Gb-----------------------------|
Db-----------------------------|
Ab-----------------------------|
Db-0-2-2-0-2--0h2-2-0h2-2-2----|


Gb-------------------------------------------------------|
Db-------------------------------------------------------|
Ab-------------------------------------------------------|
Db-2-3-3--3-3/8--8--8-8-8-8-8-0-2-2--0-2--0h2-2-0h2-2-2--|


Gb---------------------|
Db---------------------|
Ab---------------------|
Db-0-2-2-0-2--0h2-2-0--|


Gb------------------------------------------------------------------|
Db------------------------------------------------------------------|
Ab---------------------------------------------2-2-2-2-2-2-2-2-2-2--|
Db-0h2-2-2-2-2-2-2-2-2-2-2-2-2-2-2-1-1-1-1-1-1----------------------|


Gb--------------------------------------------------------------|
Db--------------------------------------------------------------|
Ab-3-3-3-3-3-3-3-3-3-3-3-3-3-3-3-3------------------------------|
Db---------------------------------5-5-5-5-5-5/9-9-9-9-9-9-9-9--|


Gb------------------------------------------------------------------|
Db------------------------------------------------------------------|
Ab---------------------------------------------2-2-2-2-2-2-2-2-2-2--|
Db-0h2-2-2-2-2-2-2-2-2-2-2-2-2-2-2-1-1-1-1-1-1----------------------|


Gb--------------------------------------------------------------|
Db--------------------------------------------------------------|
Ab-3-3-3-3-3-3-3-3-3-3-3-3-3-3-3-3------------------------------|
Db---------------------------------5-5-5-5-5-5/9-9-9-9-9-9-9-9--|


Gb-----------------------|
Db-----------------------|
Ab------------6----------|
Db-7-7-7----7---7--/15\--|


Chorus
Gb----------------------------------------------|
Db----------------------------------------------|  x3
Ab-3-3--3-3--3-3--3-3--3------------------------|
Db-----------------------2-2--2-2--2-2--2-2--2--|


Gb----------------------------------------------|
Db----------------------------------------------|
Ab------------------------2-2--2-2--2-2--2-2----|
Db-0-0--0-0--0-0--0-0--0---------------------5--|

Gb--------------------------------------------------------|
Db--------------------------------------------------------|
Ab--------------------------------------------------------|
Db-0h2--2-2-2-2--2-2-2-0-2-2-2-0h2--2-2-2--2-2-2-0-2-2-2--|


Gb--------------------------------------------------------|
Db--------------------------------------------------------|
Ab--------------------------------------------------------|
Db-0h2--2-2-2--2-2-2-0-2-2-2-0h2--2-2-2-2--2-2-2-X-X-X-X--|


Verse
Gb-----------------------------|
Db-----------------------------|
Ab-----------------------------|
Db-0-2-2-0-2--0h2-2-0h2-2-2----|


Gb-------------------------------------------------------|
Db-------------------------------------------------------|
Ab-------------------------------------------------------|
Db-2-3-3--3-3/8--8--8-8-8-8-8-0-2-2--0-2--0h2-2-0h2-2-2--|


Gb---------------------------|
Db---------------------------|
Ab---------------------------|
Db-0-2-2-0-2--0h2-2-0h2-2-2--|


Gb-----------------------------|
Db-----------------------------|
Ab-----------------------------|
Db-0-2-2-0-2--0h2-2-0h2-2-2----|


Gb-------------------------------------------------------|
Db-------------------------------------------------------|
Ab-------------------------------------------------------|
Db-2-3-3--3-3/8--8--8-8-8-8-8-0-2-2--0-2--0h2-2-0h2-2-2--|


Gb---------------------|
Db---------------------|
Ab---------------------|
Db-0-2-2-0-2--0h2-2-0--|


Gb------------------------------------------------------------------|
Db------------------------------------------------------------------|
Ab---------------------------------------------2-2-2-2-2-2-2-2-2-2--|
Db-0h2-2-2-2-2-2-2-2-2-2-2-2-2-2-2-1-1-1-1-1-1----------------------|


Gb--------------------------------------------------------------|
Db--------------------------------------------------------------|
Ab-3-3-3-3-3-3-3-3-3-3-3-3-3-3-3-3------------------------------|
Db---------------------------------5-5-5-5-5-5/9-9-9-9-9-9-9-9--|


Gb------------------------------------------------------------------|
Db------------------------------------------------------------------|
Ab---------------------------------------------2-2-2-2-2-2-2-2-2-2--|
Db-0h2-2-2-2-2-2-2-2-2-2-2-2-2-2-2-1-1-1-1-1-1----------------------|


Gb--------------------------------------------------------------|
Db--------------------------------------------------------------|
Ab-3-3-3-3-3-3-3-3-3-3-3-3-3-3-3-3------------------------------|
Db---------------------------------5-5-5-5-5-5/9-9-9-9-9-9-9-9--|


Gb-----------------------|
Db-----------------------|
Ab------------6----------|
Db-7-7-7----7---7--/15\--|

Waiting...
Gb----------------------------------------------|
Db----------------------------------------------|  x3
Ab-3-3--3-3--3-3--3-3--3------------------------|
Db-----------------------2-2--2-2--2-2--2-2--2--|


Gb----------------------------------------------|
Db----------------------------------------------|
Ab------------------------2-2--2-2--2-2--2-2----|
Db-0-0--0-0--0-0--0-0--0---------------------5--|


Gb-----------------|
Db-----------------|  x2
Ab-----------------|
Db-2-2-2----2-2-2--|


Gb-----------------------|
Db-----------------------|  x2
Ab--------2~-------------|
Db-2-2-2------2-2-2--0~--|


Gb-----------------------|
Db-----------------------|  x2
Ab--------2~-------------|
Db-2-2-2------2-2-2--0~--|


Gb---------------------------------------------------------------------|
Db---------------------------------------------------------------------|
Ab--------2-2-2-2-------------------------2-2-2-2----------------------|
Db2-2-2-2---------2-2-2-2-0-0-0-0-2-2-2-2---------2-2-2-2-0-0-0--0-0-0-|


Gb---------------------|
Db---------------------|
Ab-3-3-------3-3-------|
Db------2-2------2-2---|

Gb---------------------------------------------------------------------|
Db---------------------------------------------------------------------|
Ab-3-3--3-3--3-3--3-3--3-----------------------------------------------|
Db-----------------------2-2--2-2--2-2--2-2--2--0-0--0-0--0-0--0-0--0--|


Gb-----------------------------|
Db-----------------------------|
Ab-2-2--2-2--2-2--2-2----------|
Db--------------------5-5-5-5--|

Gb----------------------------------------------------|
Db----------------------------------------------------| x3
Ab-3-3--3-3--3-3--3-3--3------------------------------|
Db-----------------------2-2--2-2--2-2--2-2--2--------|


Gb-------------------------------------------------|
Db-------------------------------------------------|
Ab------------------------0h2-0h2-0h2-0h2----------|
Db-0-0--0-0--0-0--0-0--0------------------5-5-5-5--|


Outro
Gb------------------------------|
Db------------------------------|  x8
Ab------------------------------|
Db-0h2--2-2-2-2--2-2-2-0h2-2-2--|
Suggest correction
Give kudos to tab author, rate the tab!
1 2 3 4 5
comments
print report bad tab
1 comment total.
0 reply
KSE69 61 wrote on January 6 2009, 04:27 pm

great except on the intro it should go like this
Intro
Gb------------------------------|
Db------------------------------| x7
Ab------------------------------|
Db-0h2--2-2-2-2--2-2-2-0h2-2-2--|

guest
You may want to rate the tab now too:
select rating
Wanna post a correction for this tab? Suggest correction