Oops, an error
Loading. Please wait.

Liberate Tab

version 2
version 2
3,906 views 6 this week
1 commentread comment
1 2 3 4 5
excellent!
x 7
add to favorites
launch autoscroll
font size
0
reset
how to read this tab
guitar tuner
Tab Pro tools
  • play this tab
  • loop segment
  • change instrument
  • show fretboard
  • metronome
×
Best way to learn
"Liberate"
Autoscroll
slow
fast
+/-
esc
set tempo
stop
Contributor
Tabbers playing skills
tza
advanced ++
Liberate-Disturbed
Believe

Drop Db:
Db Ab Db Gb Bb Eb

< > = harmonics

Intro: w/ some effect ?

e-----------------------------------------------
b-----------------------------------------------
g-----------------------------------------------
d-2----2----2--2--2--2--1--1--1--9--9--9--9--9--
a-----------------------------------------------
d-----------------------------------------------

x2
e--------------------------------------------------------------
b--------------------------------------------------------------
g--------------------------------------------------------------
d--------------------------------------------------------------
a--------------------------------------------------------------
d-0h2--2-2-2-2----2-2-2-0h2-2-2--0h2--2-2-2-2----2-2-2-0h2-2-2-

e--------------------------------------------------------------
b--------------------------------------------------------------
g--------------------------------------------------------------
d--------------------------------------------------------------
a-0h2--2-2-2-2----2-2-2-0h2-2-2--0h2--2-2-2-2----2-2-2-0h2-2-2-
d-0h2--2-2-2-2----2-2-2-0h2-2-2--0h2--2-2-2-2----2-2-2-0h2-2-2-

e--------------------------------------------------------------
b--------------------------------------------------------------
g--------------------------------------------------------------
d--------------------------------------------------------------
a-0h2--2-2-2-2----2-2-2-0h2-2-2--0h2--2-2-2-2----2-2-2--13\----
d-0h2--2-2-2-2----2-2-2-0h2-2-2--0h2--2-2-2-2----2-2-2--13\----

Verses:

e--------------------------------------------------------------
b--------------------------------------------------------------
g--------------------------------------------------------------
d--------------------------------------------------------------
a-0h2--2---0-2---0h2-2-0h2-2-2--2h3--3---3-3/8--8--8--8-8-8-8--
d-0h2--2---0-2---0h2-2-0h2-2-2--2h3--3---3-3/8--8--8--8-8-8-8--
endings 1-3

e--------------------------------------------------------------
b--------------------------------------------------------------
g--------------------------------------------------------------
d--------------------------------------------------------------
a-0h2--2---0-2---0h2-2-0h2-2-2---0h2--2---0-2---0h2-2-0h2-2-2--
d-0h2--2---0-2---0h2-2-0h2-2-2---0h2--2---0-2---0h2-2-0h2-2-2--

endings 2-4

e--------------------------------------------------------------
b--------------------------------------------------------------
g--------------------------------------------------------------
d--------------------------------------------------------------
a-0h2--2---0-2---0h2-2-0h2-2-2---0h2--2---0-2---0h2-2-0--------
d-0h2--2---0-2---0h2-2-0h2-2-2---0h2--2---0-2---0h2-2-0--------

then,

x 2
e-----------------------------------------------------------------
b-----------------------------------------------------------------
g-----------------------------------------------------------------
d-2-2-2-2-2-2-2-2-2-2-2-2-2-2-2-2-1-1-1-1-1-1-9-9-9-9-9-9-9-9-9-9-
a-----------------------------------------------------------------
d-2-2-2-2-2-2-2-2-2-2-2-2-2-2-2-2-1-1-1-1-1-1-9-9-9-9-9-9-9-9-9-9-

e-------------------------------------------------------------------
b-------------------------------------------------------------------
g-------------------------------------------------------------------
d-1010101010101010-1010101010101010-5-5-5-5-5-5-9-9-9-9-9-9-9-9-9-9-
a-------------------------------------------------------------------
d-1010101010101010-1010101010101010-5-5-5-5-5-5-9-9-9-9-9-9-9-9-9-9-

before chorus

e-----------------------------------------------
b-----------------------------------------------
g-2----2---2---2----------2---2---2---2---------
d-2----2---2---2----------2---1---1---1---------
a-0----0---0---0-----x-x--0---0---0---0--x------
d--------------------x-x-----------------x-15\--

Chorus:

e----------------------------------------------
b----------------------------------------------
g----------------------------------------------
d-5----5--5--4---4--4-----2----2--4---4--4--0--
a-3----3--3--3---3--3-----2----2--2---2--2--0--
d----------------------0--2----2--2---2--2--0--

e--------------------------------------------
b--------------------------------------------
g--------------------------------------------
d-5---5-5--4---4--4--4--4----4--4---4--2--2--
a-3---3-3--3---3--3--3--2----2--2---2--2--2--
d-----------------------2----2--2---2--2--2--

e--------------------------------------------
b--------------------------------------------
g--------------------------------------------
d-5---5-5--4---4--4--4--2----2--4---2--2--0--
a-3---3-3--3---3--3--3--2----2--2---2--2--0--
d-----------------------2----2--2---2--2--0--

1st & 2nd chorus endings:

e-----------------------------
b-----------------------------
g-----------------------------
d-9---9-9---9-9---9-9---5-----
a-9---9-9---9-9---9-9---5-----
d-9---9-9---9-9---9-9---5-----

1st Interlude:

e--------------------------------------------------------------
b--------------------------------------------------------------
g--------------------------------------------------------------
d--------------------------------------------------------------
a--------------------------------------------------------------
d-0h2--2-2-2-2----2-2-2-0h2-2-2--0h2--2-2-2-2----2-2-2-0h2-2-2-

e--------------------------------------------------------------
b--------------------------------------------------------------
g--------------------------------------------------------------
d--------------------------------------------------------------
a-0h2--2-2-2-2----2-2-2-0h2-2-2--0h2--2-2-2-2----2-2-2-x-x-x-x-
d-0h2--2-2-2-2----2-2-2-0h2-2-2--0h2--2-2-2-2----2-2-2-x-x-x-x-

Interlude 2:

e-----------------------------------------------
b-----------------------------------------------
g-------------------2----------------------<7>--
d-2--2--2--------3-------2--2--2--------<7>-----
a-2--2--2-----2----------2--2--2-----<7>--------
d-2--2--2----------------2--2--2----------------

e-----------------------------------------------
b-----------------------------------------------
g-------------------2---------------------------
d-2--2--2--------3-------2--2--2--------<7>-----
a-2--2--2-----2----------2--2--2-----<7>---<7>--
d-2--2--2----------------2--2--2----------------

Bridge: x4

e--------------------------------------------------
b--------------------------------------------------
g--------------------2-------------------------<7>-
d-2--2--2---------3------2--2--2------<7>---<7>----
a-2--2--2----0-2---------2--2--2----0----<7>-------
d-2--2--2----0-----------2--2--2----0--------------

e--------------------------------------------------
b--------------------------------------------------
g--------------------2-----------------------------
d-2--2--2---------3------2--2--2------<7>---<7>----
a-2--2--2----0-2---------2--2--2----0----<7>---<7>-
d-2--2--2----0-----------2--2--2----0--------------

3rd chorus ending

e----------------------------------
b----------------------------------
g----------------------------------
d-9-9---9-9---9-9---5-5---5-5-5-5--
a-9-9---9-9---9-9---5-5---5-5-5-5--
d-9-9---9-9---9-9---5-5---5-5-5-5--

4th chorus ending

e---------------------------------
b---------------------------------
g---------------------------------
d---------------------------------
a-0h2---0h2---0h2---0h2--5-5-5-5--
d------------------------5-5-5-5--

Outro:

x2
e--------------------------------------------------------------
b--------------------------------------------------------------
g--------------------------------------------------------------
d--------------------------------------------------------------
a--------------------------------------------------------------
d-0h2--2-2-2-2----2-2-2-0h2-2-2--0h2--2-2-2-2----2-2-2-0h2-2-2-

x2
e--------------------------------------------------------------
b--------------------------------------------------------------
g--------------------------------------------------------------
d--------------------------------------------------------------
a-0h2--2-2-2-2----2-2-2-0h2-2-2--0h2--2-2-2-2----2-2-2-0h2-2-2-
d-0h2--2-2-2-2----2-2-2-0h2-2-2--0h2--2-2-2-2----2-2-2-0h2-2-2-


that’s all

*from the Disturbed Tab book*

trevor jones
timmy91199@yahoo.ca
comments
print report bad tab
1 comment total.
0 reply
tza wrote on May 7 2003, 12:00 am

before the chorus ending yur supposed to play the D5 chord more times than just once

I want to post or [tab]
guest
You may want to rate the tab now too:
select rating
Please do not post tabs as comments. Select "correction" instead!