Oops, an error
Loading. Please wait.

Liberate Tab

version 5
version 5
737 views 1 this week
no commentswrite comment
1 2 3 4 5
3 more votes to show rating
add to favorites
launch autoscroll
font size
0
reset
how to read this tab
guitar tuner
Autoscroll
slow
fast
+/-
esc
set tempo
stop
Help us to improve Ultimate-Guitar.com Take our survey!
×
Author
Difficulty
Tuning
intermediate
C# G# C# F# A# D#
Gtr I (Db Ab Db Gb Bb Eb) - 'Untitled'


   Intro
    Q=125
    D5E5               D5E5        D5E5               Bb5
   4/4
    Gtr I
    S E S S S E. S S S S S S S  7x S E S S S E. S S S Q
||------------------------------||------------------------||
||o----------------------------o||------------------------||
||------------------------------||------------------------||
||------------------------------||------------------------||
||o-0-2-2-2-2-2--2-2-2-0-2-2-2-o||-0-2-2-2-2-2--2-2-2-8\--||
||--0-2-2-2-2-2--2-2-2-0-2-2-2--||-0-2-2-2-2-2--2-2-2-8\--||


 1st Verse
  D5E5  D5E5                 F5        Bb5         D5E5  D5E5     D5E5
  S E E S q  S S S S S S   S E E S +E  S E E S E   S E E S q  S S S S S S
|------------------------|-----------------------|-------------------------|
|------------------------|-----------------------|-------------------------|
|------------------------|-----------------------|-------------------------|
|------------------------|-----------------------|-------------------------|
|-0-2-2-0-2--2-2-2-2-2-2-|-2-3-3-3-(3)S8-8-8-8-8-|-0-2-2-0-2--2-2-0-2-2-2--|
|-0-2-2-0-2--2-2-2-2-2-2-|-2-3-3-3-(3)S8-8-8-8-8-|-0-2-2-0-2--2-2-0-2-2-2--|


  D5E5  D5E5     D5E5      D5E5  D5E5                 F5        Bb5
  S E E S q  S S S S S S   S E E S q  S S S S S S   S E E S +E  S E E S E
|------------------------|------------------------|------------------------|
|------------------------|------------------------|------------------------|
|------------------------|------------------------|------------------------|
|------------------------|------------------------|------------------------|
|-0-2-2-0-2--2-2-0-2-2-2-|-0-2-2-0-2--2-2-2-2-2-2-|-2-3-3-3-(3)S8-8-8-8-8--|
|-0-2-2-0-2--2-2-0-2-2-2-|-0-2-2-0-2--2-2-2-2-2-2-|-2-3-3-3-(3)S8-8-8-8-8--|


                                                Pre-Chorus
  D5E5  D5E5     D5E5      D5E5  D5E5 D5E5D5     E5         Eb5  B5
  S E E S q  S S S S S S   S E E S q  a E Q      W          H    H
|------------------------|-------------------||-----------|-----------|
|------------------------|-------------------||o----------|-----------|
|------------------------|-------------------||-----------|-----------|
|------------------------|-------------------||-----------|-----------|
|-0-2-2-0-2--2-2-0-2-2-2-|-0-2-2-0-2--0-2-0--||o-2--------|-1----9----|
|-0-2-2-0-2--2-2-0-2-2-2-|-0-2-2-0-2--0-2-0--||--2--------|-1----9----|


  C5          G5   B5       A5
   W          H    H        E. E. H    S S   E. E. Q.    Q
|-----------|------------||----------------|------------------||
|-----------|-----------o||----------------|------------------||
|-----------|------------||----------------|----8-------------||
|-----------|------------||-7--7--7----x-x-|-7--7--7----------||
|-10--------|-5----9----o||-7--7--7----x-x-|-7--6--7----------||
|-10--------|-5----9-----||-7--7--7----x-x-|-7--7--7----12\---||


   Chorus
                      1.,2.            3.
    C5      D13        G/E  B5/E5 D5    G/E  B5/E5
            ~
    E S S E H    +E    Q  E Q  Q  E     Q  E Q  Q  +E
||-------------------|---------------||----------------|
||o------------------|--------------o||----------------|
||--5-5-5-5-5----(5)-|---------------||----------------|
||--5-5-5-5-4----(4)-|-5--5-4--2--0--||-5--5-4--2--(2)-|
||o-3-3-3-3-3----(3)-|-2--2-2--2--0-o||-2--2-2--2--(2)-|
||-------------------|-2--2-2--2--0--||-2--2-2--2--(2)-|


  D5
  S S +S  S S +S  S S +S  S S +S  S S +S  S
|---------------------------------------------|
|---------------------------------------------|
|---------------------------------------------|
|---------------------------------------------|
|-0-0-(0)-0-0-(0)-0-0-(0)-0-0-(0)-0-0-(0)-0---|
|-0-0-(0)-0-0-(0)-0-0-(0)-0-0-(0)-0-0-(0)-0---|


  B5                              G5
  S S +S  S S +S  S S +S  S S +S  Q
|------------------------------------|
|------------------------------------|
|-4-4-(4)-4-4-(4)-4-4-(4)-4-4-(4)----|
|-4-4-(4)-4-4-(4)-4-4-(4)-4-4-(4)-5--|
|-2-2-(2)-2-2-(2)-2-2-(2)-2-2-(2)-5--|
|---------------------------------5--|


   Interlude
    D5E5               D5E5        D5E5
    S E S S S E. S S S S S S S  3x S E S S S E. S S S S S S S
||------------------------------||------------------------------||
||o----------------------------o||------------------------------||
||------------------------------||------------------------------||
||------------------------------||------------------------------||
||o-0-2-2-2-2-2--2-2-2-0-2-2-2-o||-0-2-2-2-2-2--x-x-x-x-x-x-x---||
||--0-2-2-2-2-2--2-2-2-0-2-2-2--||-0-2-2-2-2-2--x-x-x-x-x-x-x---||


 2nd Verse
  D5E5  D5E5 E5              F5        Bb5         D5E5  D5E5     D5E5
  S E E S q  S S S S S S   S E E S +E  S E E S E   S E E S q  S S S S S S
|------------------------|-----------------------|-------------------------|
|------------------------|-----------------------|-------------------------|
|------------------------|-----------------------|-------------------------|
|------------------------|-----------------------|-------------------------|
|-0-2-2-0-2--2-2-2-2-2-2-|-2-3-3-3-(3)S8-8-8-8-8-|-0-2-2-0-2--2-2-0-2-2-2--|
|-0-2-2-0-2--2-2-2-2-2-2-|-2-3-3-3-(3)S8-8-8-8-8-|-0-2-2-0-2--2-2-0-2-2-2--|


  D5E5  D5E5     D5E5      D5E5  D5E5                 F5        Bb5
  S E E S q  S S S S S S   S E E S q  S S S S S S   S E E S +E  S E E S E
|------------------------|------------------------|------------------------|
|------------------------|------------------------|------------------------|
|------------------------|------------------------|------------------------|
|------------------------|------------------------|------------------------|
|-0-2-2-0-2--2-2-0-2-2-2-|-0-2-2-0-2--2-2-2-2-2-2-|-2-3-3-3-(3)S8-8-8-8-8--|
|-0-2-2-0-2--2-2-0-2-2-2-|-0-2-2-0-2--2-2-2-2-2-2-|-2-3-3-3-(3)S8-8-8-8-8--|


                                                Pre-Chorus
  D5E5  D5E5     D5E5      D5E5  D5E5 D5E5D5     E5         Eb5  B5
  S E E S q  S S S S S S   S E E S q  a E Q      W          H    H
|------------------------|-------------------||-----------|-----------|
|------------------------|-------------------||o----------|-----------|
|------------------------|-------------------||-----------|-----------|
|------------------------|-------------------||-----------|-----------|
|-0-2-2-0-2--2-2-0-2-2-2-|-0-2-2-0-2--0-2-0--||o-2--------|-1----9----|
|-0-2-2-0-2--2-2-0-2-2-2-|-0-2-2-0-2--0-2-0--||--2--------|-1----9----|


  C5          G5   B5       A5
   W          H    H        E. E. H    S S   E. E. Q.    Q
|-----------|------------||----------------|------------------||
|-----------|-----------o||----------------|------------------||
|-----------|------------||----------------|----8-------------||
|-----------|------------||-7--7--7----x-x-|-7--7--7----------||
|-10--------|-5----9----o||-7--7--7----x-x-|-7--6--7----------||
|-10--------|-5----9-----||-7--7--7----x-x-|-7--7--7----12\---||


   Chorus
                      1.,2.            3.
    C5      D13        G/E  B5/E5 D5    G/E  B5/E
            ~
    E S S E H    +E    Q  E Q  Q  E     Q  E Q  Q  +E
||-------------------|---------------||----------------|
||o------------------|--------------o||----------------|
||--5-5-5-5-5----(5)-|---------------||----------------|
||--5-5-5-5-4----(4)-|-5--5-4--2--0--||-5--5-4--2--(2)-|
||o-3-3-3-3-3----(3)-|-2--2-2--2--0-o||-2--2-2--2--(2)-|
||-------------------|-2--2-2--2--0--||-2--2-2--2--(2)-|


  D5
  S S +S  S S +S  S S +S  S S +S  S S +S  S
|---------------------------------------------|
|---------------------------------------------|
|---------------------------------------------|
|---------------------------------------------|
|-0-0-(0)-0-0-(0)-0-0-(0)-0-0-(0)-0-0-(0)-0---|
|-0-0-(0)-0-0-(0)-0-0-(0)-0-0-(0)-0-0-(0)-0---|


                                       Break
  B5                              G5    E5
                                                |-3-|
  S S +S  S S +S  S S +S  S S +S  Q     E E E E Q Q Q   E E E Q   E   E   E
|------------------------------------||---------------|-----------------------|
|------------------------------------||---------------|-----------------------|
|-4-4-(4)-4-4-(4)-4-4-(4)-4-4-(4)----||-------------2-|------------------<7>--|
|-4-4-(4)-4-4-(4)-4-4-(4)-4-4-(4)-5--||-2-2-2-----3---|-2-2-2--------<7>------|
|-2-2-(2)-2-2-(2)-2-2-(2)-2-2-(2)-5--||-2-2-2---2-----|-2-2-2----<7>----------|
|---------------------------------5--||-2-2-2---------|-2-2-2-----------------|


          |-3-|
  E E E E Q Q Q   E E E Q   E   E   E
|---------------|----------------------|
|---------------|----------------------|
|-------------2-|----------------------|
|-2-2-2-----3---|-2-2-2--------<7>-----|
|-2-2-2---2-----|-2-2-2----<7>-----<7>-|
|-2-2-2---------|-2-2-2----------------|


              |-3-|
    E E E S S Q Q Q   E E E S S  E   E   E   E
||------------------|---------------------------|
||o-----------------|---------------------------|
||----------------2-|-----------------------<7>-|
||--2-2-2-x-x---3---|-2-2-2-x-x-<7>-----<7>-----|
||o-2-2-2-x-x-2-----|-2-2-2-x-x-----<7>---------|
||--2-2-2-x-x-------|-2-2-2-x-x-----------------|


            |-3-|
  E E E S S Q Q Q   E E E S S  E   E   E   E   3x
|-----------------|----------------------------||
|-----------------|---------------------------o||
|---------------2-|----------------------------||
|-2-2-2-x-x---3---|-2-2-2-x-x-<7>-----<7>------||
|-2-2-2-x-x-2-----|-2-2-2-x-x-----<7>-----<7>-o||
|-2-2-2-x-x-------|-2-2-2-x-x------------------||


 Chorus
  C5   D13        G/E  B5/E  D5
       ~
  Q.   H    +E    Q.   Q  Q  E
|---------------|---------------|
|---------------|---------------|
|-5----5----(5)-|---------------|
|-5----4----(4)-|-5----4--2--0--|
|-3----3----(3)-|-2----2--2--0--|
|---------------|-2----2--2--0--|


  C5   D13        G/E  B5/E5 D5  C5      D13        G/E  B5/E5 D5
       ~                                 ~
  Q.   H    +E    Q.   Q  Q  E   E S S E H    +E    Q  E Q  Q  E   +W
|---------------|--------------|------------------|--------------|--------|
|---------------|--------------|------------------|--------------|--------|
|-5----5----(5)-|--------------|-5-5-5-5-5----(5)-|--------------|--------|
|-5----4----(4)-|-5----4--2--0-|-5-5-5-5-4----(4)-|-5--5-4--2--0-|-(0)----|
|-3----3----(3)-|-2----2--2--0-|-3-3-3-3-3----(3)-|-2--2-2--2--0-|-(0)----|
|---------------|-2----2--2--0-|------------------|-2--2-2--2--0-|-(0)----|


                                                           1.,2.
  B5                              G5     C5      D13        G/E  B5/E5 D5
                                                 ~
  S S +S  S S +S  S S +S  S S +S  Q      E S S E H    +E    Q  E Q  Q  E
|------------------------------------||-------------------|---------------||
|------------------------------------||o------------------|--------------o||
|-4-4-(4)-4-4-(4)-4-4-(4)-4-4-(4)----||--5-5-5-5-5----(5)-|---------------||
|-4-4-(4)-4-4-(4)-4-4-(4)-4-4-(4)-5--||--5-5-5-5-4----(4)-|-5--5-4--2--0--||
|-2-2-(2)-2-2-(2)-2-2-(2)-2-2-(2)-5--||o-3-3-3-3-3----(3)-|-2--2-2--2--0-o||
|---------------------------------5--||-------------------|-2--2-2--2--0--||


  3.
  G/E  B5/E5       D5
  Q  E Q  Q  +E    S S +S  S S +S  S S +S  S S +S  S S +S  S
|----------------|-------------------------------------------|
|----------------|-------------------------------------------|
|----------------|-------------------------------------------|
|-5--5-4--2--(2)-|-------------------------------------------|
|-2--2-2--2--(2)-|-0-0-(0)-0-0-(0)-0-0-(0)-0-0-(0)-0-0-(0)-0-|
|-2--2-2--2--(2)-|-0-0-(0)-0-0-(0)-0-0-(0)-0-0-(0)-0-0-(0)-0-|


  B5                              G5
  S S +S  S S +S  S S +S  S S +S  Q
|-------------------------------------|
|-------------------------------------|
|-4-4-(4)-4-4-(4)-4-4-(4)-4-4-(4)-----|
|-4-4-(4)-4-4-(4)-4-4-(4)-4-4-(4)-5---|
|-2-2-(2)-2-2-(2)-2-2-(2)-2-2-(2)-5---|
|---------------------------------5---|


    D5E5               D5E5        D5E5
    S E S S S E. S S S S S S S  7x S E S S S E. S S S S S S S
||------------------------------||----------------------------*|
||o----------------------------o||----------------------------*|
||------------------------------||----------------------------*|
||------------------------------||----------------------------*|
||o-0-2-2-2-2-2--2-2-2-0-2-2-2-o||-0-2-2-2-2-2--x-x-x-x-x-x-x-*|
||--0-2-2-2-2-2--2-2-2-0-2-2-2--||-0-2-2-2-2-2--x-x-x-x-x-x-x-*|




--------------------------------------------------------------------------------


Duration Legend
---------------
W - whole; H - half; Q - quarter; E - 8th; S - 16th; T - 32nd; X - 64th; a - acciaccatura
+ - note tied to previous; . - note dotted; .. - note double dotted
Uncapitalized letters represent notes that are staccato (1/2 duration)
Irregular groupings are notated above the duration line
Duration letters will always appear directly above the note/fret number it represents the
duration for.  Duration letters with no fret number below them represent rests.  Multi-
bar rests are notated in the form Wxn, where n is the number of bars to rest for.  Low
melody durations appear below the staff

Tablature Legend
----------------
 h   - hammer-on
 p   - pull-off
 b   - bend
 pb  - pre-bend
 r   - bend release (if no number after the r, then release immediately)
 /\  - slide into or out of (from/to "nowhere")
 s   - legato slide
 S   - shift slide
 - natural harmonic
[n]  - artificial harmonic
n(n) - tapped harmonic
 ~   - vibrato
 tr  - trill
 T   - tap
 TP  - trem. picking
 PM  - palm muting
\n/  - tremolo bar dip; n = amount to dip
 \n  - tremolo bar down
 n/  - tremolo bar up
/n\  - tremolo bar inverted dip
 =   - hold bend; also acts as connecting device for hammers/pulls
 <> - volume swell (louder/softer)
 x   - on rhythm slash represents muted slash
 o   - on rhythm slash represents single note slash

Misc Legend
-----------
 |  - bar
||  - double bar
||o - repeat start
o|| - repeat end
*|  - double bar (ending)
 :  - bar (freetime)
 $  - Segno
 &  - Coda
Tempo markers -  = BPM(8/16=s8/s16), where s8 = swing 8ths, s16 = swing 16ths
Suggest correction
Give kudos to tab author, rate the tab!
1 2 3 4 5
comments
print report bad tab
guest
You may want to rate the tab now too:
select rating
Wanna post a correction for this tab? Suggest correction