Oops, an error
Loading. Please wait.

Living After Midnight Tab

6,648 views 3 this week
no commentswrite comment
1 2 3 4 5
x 5
add to favorites
launch autoscroll
font size
0
reset
how to read this tab
guitar tuner
Autoscroll
slow
fast
+/-
esc
set tempo
stop
Help us to improve Ultimate-Guitar.com Take our survey!
×
Author
Difficulty
Disturbed
Living After Midnight (Judas Priest cover)
Tribute to British Steel

Tabbed by: guitarfreak191


This is a really easy song and is fun to play. I could not find a tab for
the covered version, and for some reason took me a while to figure out
that it is just one half-step lower than the original. In case you don't know
the original tab, I've wrote it out for you here (for Judas Priest version,
simply tune to standard and play as written). Feel free to leave comments
or corrections. This is one of my first tabs so I hope you enjoy!

Tuning: d# g# c# f# a# d# (lowest to highest)




Intro/Chorus

D#|----------------------------------------------------|
A#|----------------------------------------------------|
F#|--9--9----7-----------------9--9----7---------------|
C#|--9--9----7----7--7----9----9--9----7----7--7----9--|
G#|--7--7----5----7--7----9----7--7----5----7--7----9--|
D#|---------------5--5----7-----------------5--5----7--|

D#|----------------------------------------------------|
A#|----------------------------------------------------|
F#|--9--9----7-----------------------------------------|
C#|--9--9----7----7--7----9--9---------9--9---------9--|
G#|--7--7----5----7--7----9--9---------9--9---------9--|
D#|---------------5--5----7--7---------7--7---------7--|



Verse

D#|--------------------------------------------|
A#|--------------------------------------------|
F#|--------------------------------------------|
C#|--2222222222222222225--2222225--2222222(2)--|
G#|--2222222222222222225--2222225--2222222(2)--|
D#|--0000000000000000003--0000003--0000000(0)--|
             (16x)         (6x)      (7x)

(let last chord ring for short beat; only strum last group 7 times)



Pre Chorus

D#|---------------------------|
A#|---------------------------|
F#|----------------------5----|
C#|--5------------4------5----|
G#|--5------------4------3----|
D#|--3------------2-----------|



Bridge

D#|------------------------------------------------------|
A#|------------------------------------------------------|
F#|--------7--7----------7--7--7-------------------------|
C#|--7--7--7--7--7----7--7--7--7--7--5--2222225--222222--|   (3x)
G#|--7--7--5--5--7----7--5--5--5--7--5--2222225--222222--|
D#|--5--5--------5----5-----------5--3--0000003--000000--|
                                         (6x)     (6x)

D#|-----------------------------------------------------|
A#|-----------------------------------------------------|
F#|--------7--7----------7--7--7-----4------7----4------|
C#|--7--7--7--7--7----7--7--7--7--7--4------7----4------|
G#|--7--7--5--5--7----7--5--5--5--7--2------5----2------|
D#|--5--5--------5----5-----------5---------------------|



Guitar Solo

D#|--------------------------------------------------------------------|
A#|--------------------------------------------------------------------|
F#|--14(15)-(15)--14-12----------------------------14-(15)-(*15)-(*15)-|
C#|---------------------14-12-14--14--11-14-11-14----------------------|
G#|--------------------------------------------------------------------|
D#|--------------------------------------------------------------------|
   (bend up to 15)                        (bend up to 15;*pinch harmonic)

D#|--------------------------------------------------------------------|
A#|--------------------------------------------------------------------|
F#|--12-------------9-11-14(15)-(15)--14-12----------------------------|
C#|-----14-12----11-------------------------14-12-14--14--11-14-11-14--|
G#|--------------------------------------------------------------------|
D#|--------------------------------------------------------------------|
                        (bend up to 15)

D#|--17---22-19-17-15-19-------------|
A#|----------------------------------|
F#|----------------------------------|
C#|----------------------------------|
G#|----------------------------------|
D#|----------------------------------|



Song Structure:

drum intro/drum solo
intro/chorus (2x)
verse (2x)
pre chorus
intro/chorus
verse (2x)
pre chorus
intro/chorus
bridge
guitar solo
verse (2x)
pre chorus
intro/chorus (2x) (Judas Priest version fades on chorus)

I have no idea what is going on at the end during the fade, so I wrote
only what I can hear/play.
Suggest correction
comments
print report bad tab
guest
You may want to rate the tab now too:
select rating
Wanna post a correction for this tab? Suggest correction