Oops, an error
Loading. Please wait.

Loading The Weapon Bass Tab

version 1
version 1

Whole song

Interactive

429 views 1 this week
no commentswrite comment
1 2 3 4 5
please rate
add to favorites
launch autoscroll
font size
0
reset
guitar tuner
Autoscroll
slow
fast
+/-
esc
set tempo
stop
Help us to improve Ultimate-Guitar.com Take our survey!
×
Contributor
Andrew Zara 3,572
Band- Disturbed
Song- Loading The Weapon

Gtr I (Bb Db Ab Db Gb) - 'Fuzz'

 Intro
  Moderately Slow Q=70
 4/4
  Gtr I
  W          H.      +E  E   W          Q.   E +Q   Q
|----------|---------------|----------|----------------|
|-5--------|-5-------(5)-3-|-5--------|-6-----------3--|
|----------|---------------|----------|------5-(5)-----|
|----------|---------------|----------|----------------|
|----------|---------------|----------|----------------|


  Q.   E +Q   +E   S  S    Q.    E  +Q    +E   S  S
|------8-(8)--(8)-12s14-|-12------------------12s14-|
|-5---------------------|-------13-(13)--(13)-------|
|-----------------------|---------------------------|
|-----------------------|---------------------------|
|-----------------------|---------------------------|


   Q.    E  +H        Q.   E +Q   Q
|-12---------------|-13---------------||
|-------13-(13)----|-------0-(0)--3---||
|------------------|------------------||
|------------------|------------------||
|------------------|------------------||


  E S S S S E +H       E S S S S E +Q   +E  E
|--------------------|------------------------|
|-5---5---5----------|-5---5---5------------3-|
|-----------6-(6)----|-----------6-(6)--(6)---|
|--------------------|------------------------|
|--------------------|------------------------|


  E S S S S E +H       E S S S S E +Q   Q
|--------------------|---------------------|
|-5---5---5----------|-6---6---6-0-(0)--3--|
|-----------6-(6)----|---------------------|
|--------------------|---------------------|
|--------------------|---------------------|


  E S S S S E +H       E S S S S E +Q   +E  E
|--------------------|------------------------|
|-5---5---5----------|-5---5---5------------3-|
|-----------6-(6)----|-----------6-(6)--(6)---|
|--------------------|------------------------|
|--------------------|------------------------|


                                           2/4
  E S S S S E +H       E S S S S E +H       +H
|--------------------|--------------------|--------||
|-5---5---5----------|-6---6---6-0-(0)----|-(0)----||
|-----------6-(6)----|--------------------|--------||
|--------------------|--------------------|--------||
|--------------------|--------------------|--------||


   4/4
    S S S S S S S S S S S S S S S S   S S S S S S S S S S S S S S S S
||----------------------------------|----------------------------------|
||o---------------------------------|----------------------------------|
||--------------6-6-6-6-x-6-6-6-x---|-------------6-6-6-6-x-6-6-6------|
||o-5-5-5-5-x-5-------------------5-|-5-5-5-5-x-5-----------------3-3--|
||----------------------------------|----------------------------------|


  S S S S S S S S S S S S S S S S   S S S S S S S S S S S S S S S S
|---------------------------------|----------------------------------||
|---------------------------------|---------------------------------o||
|-------------6-6-6-6-x-6-6-6-x---|----------------------------------||
|-5-5-5-5-x-5-------------------5-|-6-6-6-6-x-6-0-0-0-0-x-0-3-3-x-3-o||
|---------------------------------|----------------------------------||


  E. S E  S S E E E E   +E  E S S S S S S S S S S S S
|---------------------|-------------------------------|
|---------------------|-------------------------------|
|---------------------|-------------------------------|
|-1--1-1-/8-8-8-7-x-3-|-(3)-5-x-5---x-5---7-7-8-8-7-5-|
|---------------------|-------------------------------|


  E. S E  S S E E E E   +E  E S S S S S S S S S S S S
|---------------------|-------------------------------|
|---------------------|-------------------------------|
|---------------------|-------------------------------|
|-1--1-1-/8-8-8-7-x-3-|-(3)-5-x-5---x-5---x-5---x-x-x-|
|---------------------|-------------------------------|


  E. S E  S S E E E E   +E  E +S  E. E. S +E  S S
|---------------------|---------------------------|
|---------------------|---------------------------|
|---------------------|---------------------------|
|-1--1-1-/8-8-8-7-x-3-|-(3)-5-(5)-5--5--5-(5)-5-5-|
|---------------------|---------------------------|


  S S S S S S S S S S S S S S S S   E. S +E  E +S  E. E E
|---------------------------------|-----------------------||
|---------------------------------|-----------------------||
|---------------------------------|-----------------------||
|---------------------------------|-7--7-(7)-7-(7)-7--7-7-||
|-1-1-1-1-1-1-1-1-1-1-1-1-1-1-1-1-|-----------------------||


 Outro
  H.      +E  E   H.      +E  E   H.      +E  E   W
|---------------|---------------|---------------|------|
|---------------|---------------|---------------|------|
|---------------|---------------|---------------|------|
|-0-------(0)-0-|-0-------(0)-0-|-0-------(0)-0-|-0----|
|---------------|---------------|---------------|------|


  W          +W
|----------|--------*|
|----------|--------*|
|----------|--------*|
|-0--------|-(0)----*|
|----------|--------*|


Duration Legend
---------------
W - whole; H - half; Q - quarter; E - 8th; S - 16th; T - 32nd; X - 64th; a - acciaccatura
+ - note tied to previous; . - note dotted; .. - note double dotted
Uncapitalized letters represent notes that are staccato (1/2 duration)
Irregular groupings are notated above the duration line
Duration letters will always appear directly above the note/fret number it represents the
duration for.  Duration letters with no fret number below them represent rests.  Multi-
bar rests are notated in the form Wxn, where n is the number of bars to rest for.  Low
melody durations appear below the staff

Tablature Legend
----------------
 h   - hammer-on
 p   - pull-off
 b   - bend
 pb  - pre-bend
 r   - bend release (if no number after the r, then release immediately)
 /\  - slide into or out of (from/to "nowhere")
 s   - legato slide
 S   - shift slide
  - natural harmonic
[n]  - artificial harmonic
n(n) - tapped harmonic
 ~   - vibrato
 tr  - trill
 T   - tap
 TP  - trem. picking
 PM  - palm muting
\n/  - tremolo bar dip; n = amount to dip
 \n  - tremolo bar down
 n/  - tremolo bar up
/n\  - tremolo bar inverted dip
 =   - hold bend; also acts as connecting device for hammers/pulls
 <>  - volume swell (louder/softer)
 x   - on rhythm slash represents muted slash
 o   - on rhythm slash represents single note slash

Misc Legend
-----------
 |  - bar
||  - double bar
||o - repeat start
o|| - repeat end
*|  - double bar (ending)
 :  - bar (freetime)
 $  - Segno
 &  - Coda
Tempo markers -  = BPM(8/16=s8/s16), where s8 = swing 8ths, s16 = swing 16ths
Suggest correction new What's this?
You can suggest a correction to this tab. Community and Mods will review your correction and vote to approve or reject it.
comments
We did not receive enough feedback on this tab! Please rate:
print report bad tab
1 2 3 4 5
guest
You may want to rate the tab now too:
select rating
Please do not post tabs as comments. Select "correction" instead!