Oops, an error
Loading. Please wait.

Loading The Weapon Tab

version 3
version 3

Whole song

Interactive

3,102 views 6 this week
2 commentsread comments
1 2 3 4 5
excellent!
x 4
add to favorites
launch autoscroll
font size
0
reset
how to read this tab
guitar tuner
Autoscroll
slow
fast
+/-
esc
set tempo
stop
Help us to improve Ultimate-Guitar.com Take our survey!
×
Author
Difficulty
Tuning
Andrew Zara 3,652
intermediate
C# G# C# F# A# D#
Gtr I (Db Ab Db Gb Bb Eb) - 'Clean elec.'
Gtr II (Db Ab Db Gb Bb Eb) - 'Dist. elec.'
Gtr III (Db Ab Db Gb Bb Eb) - 'Dan w/ dist.'


   Intro
    Moderately Slow Q=70
    Gm    G5      Gsus2+Gm6             Gm    G5      Gsus2+Gsus2+5     N.C.
   4/4
    Gtr I
    S S S S +S  S S S S S +E  +E  S S   S S S S +S  S S S S S +E  +S  S E
||------------------------------------|-----------------------------------|
||o-----------------------------------|-----------------------------------|
||------------------------------------|-----------------------------------|
||----8---5-(5)-----7---5-(5)-(5)---5-|---8---5-(5)-----7---5-(5)-(5)-----|
||o-----5-------5-6---6-----------6---|-----5-------5-6---6-----------6---|
||--5---------------------------------|-5-------------------------------3-|


  Gm    G5      Gsus2+Gm6             Ab5           N.C.          F5
  S S S S +S  S S S S S +E  +E  S S   S S S S +S  S S S S S +S  S S S +S  S
|-----------------------------------|----------------------------------------||
|-----------------------------------|---------------------------------------o||
|-----------------------------------|----------------------------------------||
|---8---5-(5)-----7---5-(5)-(5)---5-|-6--------------------------------------||
|-----5-------5-6---6-----------6---|---6---6-(6)-----6---5-(5)-----3-(3)-3-o||
|-5---------------------------------|-----6-------6-0---0-------0-3----------||


  Gm    G5      Gsus2+Gm6             Gm      G5      Gsus2+5 Gm6         N.C.
  Gtr II
  W                                    E.     S +E    E   +Q.             E
|-----------------------------------|----------------------------------------|
|-----------------------------------|-10------8-(8)--------------------------|
|-7---------------------------------|-----------------7---(7)----------------|
|-----------------------------------|----------------------------------------|
|-----------------------------------|----------------------------------------|
|-----------------------------------|----------------------------------------|
|
| Gtr I
| S S S S +S  S S S S S +E  +E  S S    S  S S S +S  S S S  S  S +E  +S  S E
|-----------------------------------|----------------------------------------|
|-----------------------------------|----------------------------------------|
|-----------------------------------|----------------------------------------|
|---8---5-(5)-----7---5-(5)-(5)---5-|-----8---5-(5)-----7-----5-(5)-(5)------|
|-----5-------5-6---6-----------6---|-------5-------5-6----6------------6----|
|-5---------------------------------|--5----------------------------------3--|


  Gm      G5      Gsus2+5   Gm6
   E.     S +E     E    +Q         Q
|-----------------------------------------|
|-10--------------------------------------|
|--9------7-(7)---10---(10)--------7------|
|-----------------------------------------|
|-----------------------------------------|
|-----------------------------------------|
|
|  S  S S S +S  S  S S   S  S +E  +E  S S
|-----------------------------------------|
|-----------------------------------------|
|-----------------------------------------|
|-----8---5-(5)------7------5-(5)-(5)---5-|
|-------5-------5--6-----6------------6---|
|--5--------------------------------------|


  Ab5            N.C.            F5
  Q.             E   +Q           Q
|-------------------------------------------|
|-------------------------------------------|
|-8--------------8---(8)---------10---------|
|-------------------------------------------|
|-------------------------------------------|
|-------------------------------------------|
|
| S  S S S +S  S S S  S  S +S  S  S S +S  S
|-------------------------------------------|
|-------------------------------------------|
|-------------------------------------------|
|-6-----------------------------------------|
|----6---6-(6)-----6-----5-(5)------3-(3)-3-|
|------6-------6-0----0--------0--3---------|


  Gm      G5      Gsus2+5 Gm6
   E.     S +E    E   +Q.           E
|---------------------------------------|
|-10------8-(8)-------------------------|
|-----------------7---(7)---------------|
|---------------------------------------|
|---------------------------------------|
|---------------------------------------|
|
|  S  S S S +S  S S S  S  S +E  +E  S S
|---------------------------------------|
|---------------------------------------|
|---------------------------------------|
|-----8---5-(5)-----7-----5-(5)-(5)---5-|
|-------5-------5-6----6------------6---|
|--5------------------------------------|


  Gm      G5      Gsus2+5   Gm6          N.C.
   E.     S +E     E    +S  E.     +Q
|-------------------------------------------|
|-10------8-(8)---11---(11)-8------(8)------|
|-------------------------------------------|
|-------------------------------------------|
|-------------------------------------------|
|-------------------------------------------|
|
|  S  S S S +S  S  S S   S  S  +E  +S  S E
|-------------------------------------------|
|-------------------------------------------|
|-------------------------------------------|
|-----8---5-(5)------7------5--(5)-(5)------|
|-------5-------5--6-----6-------------6----|
|--5-------------------------------------3--|


  Gm      G5      Gsus2+5   Gm6
  Gtr III
   W
|-----------------------------------------|
|-----------------------------------------|
|-----------------------------------------|
|-----------------------------------------|
|-----------------------------------------|
|-----------------------------------------|
|
| Gtr II
|  E.     S +E     E    +Q         Q
|-----------------------------------------|
|-10--------------------------------------|
|--9------7-(7)---10---(10)--------7------|
|-----------------------------------------|
|-----------------------------------------|
|-----------------------------------------|
|
| Gtr I
|  S  S S S +S  S  S S   S  S +E  +E  S S
|-----------------------------------------|
|-----------------------------------------|
|-----------------------------------------|
|-----8---5-(5)------7------5-(5)-(5)---5-|
|-------5-------5--6-----6------------6---|
|--5--------------------------------------|


  Ab5            N.C.
                                     2/4
                                <
  H                   Q         Q     +H
|-----------------------------------|--------||
|-----------------------------------|--------||
|-----------------------------------|--------||
|-----------------------------------|--------||
|-------------------------------0---|-(0)----||
|-------------------------------0---|-(0)----||
|
|                               >
| Q.             E   +Q         Q     +H
|-----------------------------------|--------||
|-----------------------------------|--------||
|-8--------------8---(8)--------7---|-(7)----||
|-----------------------------------|--------||
|-----------------------------------|--------||
|-----------------------------------|--------||
|
| S  S S S +S  S S S  S  S +E  +Q      H
|-----------------------------------|--------||
|-----------------------------------|--------||
|-----------------------------------|--------||
|-6---------------------------------|--------||
|----6---6-(6)-----6-----5-(5)-(5)--|--------||
|------6-------6-0----0-------------|--------||


    Gm    G5    Gsus2+Gm6             Gm    G5    Gsus2+Gm6         F5
   4/4
    Gtr III
    S S S S S S S S S S S S S S S S   S S S S S S S S S S S S S S S S
||----------------------------------|----------------------------------|
||o---------------------------------|----------------------------------|
||----------------------------------|----------------------------------|
||--8-8-8-5-x-5-7-7-7-5-x-5-5-5-x-5-|-8-8-8-5-x-5-7-7-7-5-x-5-5-5-x-3--|
||o-5-5-5-5-x-5-6-6-6-6-x-6-6-6-x-6-|-5-5-5-5-x-5-6-6-6-6-x-6-6-6-x-3--|
||--5-5-5-5-x-5-5-5-5-5-x-5-5-5-x-5-|-5-5-5-5-x-5-5-5-5-5-x-5-5-5-x-3--|


  Gm    G5    Gsus2+Gm6             Ab5         N.C.      D5F5
  S S S S S S S S S S S S S S S S   S S S S S S S S S S S S S S S S
|---------------------------------|----------------------------------||
|---------------------------------|---------------------------------o||
|---------------------------------|----------------------------------||
|-8-8-8-5-x-5-7-7-7-5-x-5-5-5-x-5-|-6-6-6-6-x-6---------x-0-3-3-x-3--||
|-5-5-5-5-x-5-6-6-6-6-x-6-6-6-x-6-|-6-6-6-6-x-6-6-6-6-5-x-0-3-3-x-3-o||
|-5-5-5-5-x-5-5-5-5-5-x-5-5-5-x-5-|-6-6-6-6-x-6-0-0-0-0-x-0-3-3-x-3--||


  Eb5  Bb5    A5  F5      G5              A5  Bb5 A5G5
  Q  E  S S E E E E   +E  E S S S  S  S S S S S S S S
|-------------------|---------------------------------|
|-------------------|---------------------------------|
|-------------------|---------------------------------|
|-1--1-/8-8-8-7-x-3-|-(3)-5-x-5----x--5---7-7-8-8-7-5-|
|-1--1-/8-8-8-7-x-3-|-(3)-5-x-5----x--5---7-7-8-8-7-5-|
|-1--1-/8-8-8-7-x-3-|-(3)-5-x-5---(5)-5---7-7-8-8-7-5-|


  Eb5  Bb5    A5    F5      G5
  Q  E  S S E E S S E   +E  E S S S S S S S S S S S S
|---------------------|-------------------------------|
|---------------------|-------------------------------|
|---------------------|-------------------------------|
|-1--1-/8-8-8-7-x-x-3-|-(3)-5-x-5---x-5---x-5---x-x-x-|
|-1--1-/8-8-8-7-x-x-3-|-(3)-5-x-5---x-5---x-5---x-x-x-|
|-1--1-/8-8-8-7-x-x-3-|-(3)-5-x-5---x-5---x-5---x-x-x-|


  Eb5  Bb5    A5  F5      G5
  Q  E  S S E E E E   +E  E +S  E. E. S +E  S S
|-------------------|---------------------------|
|-------------------|---------------------------|
|-------------------|---------------------------|
|-1--1-/8-8-8-7-x-3-|-(3)-5-(5)-5--5--5-(5)-5-5-|
|-1--1-/8-8-8-7-x-3-|-(3)-5-(5)-5--5--5-(5)-5-5-|
|-1--1-/8-8-8-7-x-3-|-(3)-5-(5)-5--5--5-(5)-5-5-|


  C5                          A5(type 2)
   E.  S  +E   E.  E.  E  E   E.  S  +E   E.  E.  E  E
|---------------------------|--------------------------||
|-----13-(13)-----13--13-13-|----10-(10)-10--10--10-10-||
|-12--12-(12)-12--12--12-12-|-9---9--(9)--9---9---9--9-||
|-10--10-(10)-10--10--10-10-|-7---7--(7)--7---7---7--7-||
|-10--10-(10)-10--10--10-10-|-7---7--(7)--7---7---7--7-||
|-10--10-(10)-10--10--10-10-|-7---7--(7)--7---7---7--7-||


 Outro
  D5
  H.      +E  E   H.      +E  E   H.      +E  E   W
|---------------|---------------|---------------|------|
|---------------|---------------|---------------|------|
|---------------|---------------|---------------|------|
|-0-------(0)-0-|-0-------(0)-0-|-0-------(0)-0-|-0----|
|-0-------(0)-0-|-0-------(0)-0-|-0-------(0)-0-|-0----|
|-0-------(0)-0-|-0-------(0)-0-|-0-------(0)-0-|-0----|


  W          +W
|----------|--------*|
|----------|--------*|
|----------|--------*|
|-0--------|-(0)----*|
|-0--------|-(0)----*|
|-0--------|-(0)----*|




--------------------------------------------------------------------------------


Duration Legend
---------------
W - whole; H - half; Q - quarter; E - 8th; S - 16th; T - 32nd; X - 64th; a - acciaccatura
+ - note tied to previous; . - note dotted; .. - note double dotted
Uncapitalized letters represent notes that are staccato (1/2 duration)
Irregular groupings are notated above the duration line
Duration letters will always appear directly above the note/fret number it represents the
duration for.  Duration letters with no fret number below them represent rests.  Multi-
bar rests are notated in the form Wxn, where n is the number of bars to rest for.  Low
melody durations appear below the staff

Tablature Legend
----------------
 h   - hammer-on
 p   - pull-off
 b   - bend
 pb  - pre-bend
 r   - bend release (if no number after the r, then release immediately)
 /\  - slide into or out of (from/to "nowhere")
 s   - legato slide
 S   - shift slide
 - natural harmonic
[n]  - artificial harmonic
n(n) - tapped harmonic
 ~   - vibrato
 tr  - trill
 T   - tap
 TP  - trem. picking
 PM  - palm muting
\n/  - tremolo bar dip; n = amount to dip
 \n  - tremolo bar down
 n/  - tremolo bar up
/n\  - tremolo bar inverted dip
 =   - hold bend; also acts as connecting device for hammers/pulls
 <> - volume swell (louder/softer)
 x   - on rhythm slash represents muted slash
 o   - on rhythm slash represents single note slash

Misc Legend
-----------
 |  - bar
||  - double bar
||o - repeat start
o|| - repeat end
*|  - double bar (ending)
 :  - bar (freetime)
 $  - Segno
 &  - Coda
Tempo markers -  = BPM(8/16=s8/s16), where s8 = swing 8ths, s16 = swing 16ths



--------------------------------------------------------------------------------
Suggest correction
What's this?
You can suggest a correction to this tab. Community and Mods will review your correction and vote to approve or reject it.
comments
print report bad tab
2 comments total.
0 reply
swe_fender 415 wrote on March 18 2007, 05:17 pm

better than the otherone you made :P 5stars, looks a little like the one for guitar pro ;)

0 reply
Matt513 12 wrote on February 1 2012, 08:54 pm

Intro sounds like this to me but thats just my opinion though

--8---5---------7--5------5-
-----------5--6---------6---
5---5---5-------------------

--8---5---------7--5-------
-----------5--6--------6---
5---5---5----------------3-

--8---5---------7--5------5-
-----------5--6---------6---
5---5---5-------------------

-----------------------------
---6---6------6---5------3--3
-6---6----6-0---0---0--3--3--

guest
You may want to rate the tab now too:
select rating
Please do not post tabs as comments. Select "correction" instead!