Oops, an error
Loading. Please wait.

Monster Tab

version 1
version 1

Whole song

Interactive

10,686 views 51 this week
11 commentsread comments
1 2 3 4 5
excellent!
x 15
add to favorites
launch autoscroll
font size
0
reset
how to read this tab
guitar tuner
Tab Pro tools
  • play this tab
  • loop segment
  • change instrument
  • show fretboard
  • metronome
×
Best way to learn
"Monster"
Autoscroll
slow
fast
+/-
esc
set tempo
stop
Contributor
Tuning
D A D G B E
Song: Monster
Artist: Disturbed
Album: well...none

Drop C# (or Db) - Db Ab Db Gb Bb Eb

This is an awsome unreleased song of disturbed. For corrections...well...leave a comment.

*Update (sept. 20th 2006)*: I included the solo that
I've done on the GP version, for thoses who don't 
have it.

Intro
|--------------------------------------|
|--------------------------------------|
|--------8xx5-x7-7-------8xx5----------|
|--0--0xx8xx5-x7-7-0--0xx8xx5-xx5p3-0--|
|--0--0xx6xx3-x5-5-0--0xx6xx3-xx5p3-0--|
|--0--0xx----------0--0xx-----xx5p3-0--|
PM             .

|---------------------------------|
|---------------------------------|
|-----8xx5-x7-7-------8xx5--------|
|--0xx8xx5-x7-7-0--0xx8xx5----5*--|
|--0xx6xx3-x5-5-0--0xx6xx3--5*----|
|--0xx----------0--0xx------------|
Pm          .                ^ Pinch Harmonics

|-----------------------------------|
|-----------------------------------|
|-----8xx5-x7-7-------8xx5----------|
|--0xx8xx5-x7-7-0--0xx8xx5-xx5p3-0--|
|--0xx6xx3-x5-5-0--0xx6xx3-xx5p3-0--|
|--0xx----------0--0xx-----xx5p3-0--|
PM          .

|-------------------------------|
|-------------------------------|
|-----8xx5-x7-7-------8xx5------|
|--0xx8xx5-x7-7-0--0xx8xx5------|
|--0xx6xx3-x5-5-0--0xx6xx3------|
|--0xx----------0--0xx------000-|
PM          .               ...




Verse
|------------------------------------------------|
|------------------------------------------------|
|--------5--------7--------5---------------------|
|--7-5-7----7-5-7----7-5-7----7-5-7--------------|
|-----------------------------------5--xx3-x6x3--|
|------------------------------------------------|


|------------------------------------------------|
|------------------------------------------------|
|--------5--------7--------5---------------------|
|--7-5-7----7-5-7----7-5-7----7-5-7----------x3--|
|-----------------------------------5--xx3-x6----|
|------------------------------------------------|


|------------------------------------------------|
|------------------------------------------------|
|--------5--------7--------5---------------------|
|--7-5-7----7-5-7----7-5-7----7-5-7--------------|
|-----------------------------------5--xx3-x6x3--|
|------------------------------------------------|


|------------------------------------------------|
|------------------------------------------------|
|--------5--------7--------5---------------------|
|--7-5-7----7-5-7----7-5-7----7-5-7----------x3--|
|-----------------------------------5--xx3-x6----|
|------------------------------------------------|




Pre-Chorus
|----------------------------------|
|----------------------------------|
|----------------------------------|
|-000-xx111-xx000-xx333------------|
|-000-xx111-xx000-xx333---1--3--5--|
|-000-xx111-xx000-xx333---1xx3xx5--|




Chorus
|--------------------------------------|
|--------------------------------------|
|--------8xx5-x7-7-------8xx5----------|
|--0--0xx8xx5-x7-7-0--0xx8xx5-xx5p3-0--|
|--0--0xx6xx3-x5-5-0--0xx6xx3-xx5p3-0--|
|--0--0xx----------0--0xx-----xx5p3-0--|
PM             .

|---------------------------------|
|---------------------------------|
|-----8xx5-x7-7-------8xx5--------|
|--0xx8xx5-x7-7-0--0xx8xx5----5*--|
|--0xx6xx3-x5-5-0--0xx6xx3--5*----|
|--0xx----------0--0xx------------|
Pm          .                ^ Pinch Harmonics

|-----------------------------------|
|-----------------------------------|
|-----8xx5-x7-7-------8xx5----------|
|--0xx8xx5-x7-7-0--0xx8xx5-xx5p3-0--|
|--0xx6xx3-x5-5-0--0xx6xx3-xx5p3-0--|
|--0xx----------0--0xx-----xx5p3-0--|
PM          .

|-------------------------------|
|-------------------------------|
|-----8xx5-x7-7-------8xx5------|
|--0xx8xx5-x7-7-0--0xx8xx5------|
|--0xx6xx3-x5-5-0--0xx6xx3------|
|--0xx----------0--0xx------000-|
PM          .               ...




Verse




Pre-Chorus




Chorus




Interlude
|------------------------------|
|------------------------------|
|------------------------------|
|------------------------------|
|-----5-6p5-6p5-6p5-6p5--------|
|--00--0---0---0---0---0--3-5--|
PM ..      .   .   .   .

|-------------------------------|
|-------------------------------|
|-------------------------------|
|-------------------------------|
|-----5-6p5-6p5-6p5-6h8------8--|
|--00--0---0---0---0---0--10----|
PM ..      .   .   .   .

|------------------------------|
|------------------------------|
|------------------------------|
|------------------------------|
|-----5-6p5-6p5-6p5-6p5--------|
|--00--0---0---0---0---0--3-5--|
PM ..      .   .   .   .

|---------------------------|
|---------------------------|
|---------------------------|
|---------------------------|
|-----5-6p5-6p5---333-55-1--|
|--00--0---0---5--333-55-1--|
PM ..      .   .   .   .

|-------------------------|
|-------------------------|
|----8\7-8\7-8\7-8\7------|
|--0-8\7-8\7-8\7-8\7--3-5-|
|--0-6\5-6\5-6\5-6\5--3-5-|
|--0------------------3-5-|
PM .

|-----------------------------|
|-----------------------------|
|----8\7-8\7-8\7-8/10-----10--|
|--0-8\7-8\7-8\7-8/10--10x10--|
|--0-6\5-6\5-6\5-6/8---10x8---|
|--0-------------------10x----|
PM .

|-------------------------|
|-------------------------|
|----8\7-8\7-8\7-8\7------|
|--0-8\7-8\7-8\7-8\7--3-5-|
|--0-6\5-6\5-6\5-6\5--3-5-|
|--0------------------3-5-|
PM .

|------------------------|
|------------------------|
|----8\7-8\7-------------|
|--0-8\7-8\7-5-333-55-1--|
|--0-6\5-6\5-5-333-55-1--|
|--0---------5-333-55-1--|
PM .

|-------------------------|
|-------------------------|
|----8\7-8\7-8\7-8\7------|
|--0-8\7-8\7-8\7-8\7--3-5-|
|--0-6\5-6\5-6\5-6\5--3-5-|
|--0------------------3-5-|
PM .

|-----------------------------|
|-----------------------------|
|----8\7-8\7-8\7-8/10-----10--|
|--0-8\7-8\7-8\7-8/10--10x10--|
|--0-6\5-6\5-6\5-6/8---10x8---|
|--0-------------------10x----|
PM .

|-------------------------|
|-------------------------|
|----8\7-8\7-8\7-8\7------|
|--0-8\7-8\7-8\7-8\7--3-5-|
|--0-6\5-6\5-6\5-6\5--3-5-|
|--0------------------3-5-|
PM .

|------------------------|
|------------------------|
|----8\7-8\7-------------|
|--0-8\7-8\7-5-333-55-1--|
|--0-6\5-6\5-5-333-55-1--|
|--0---------5-333-55-1--|
Pm .


Solo (Guitar 1)
(You can figure by yourself where are the hammers and the pull off)
|----------------------------------------------------|
|----------------------------------------------------|
|-10-12-10----14-10----12-10----15----14----12----10-|
|---------12-------12-------12----12----12----12-----|
|----------------------------------------------------|
|----------------------------------------------------|


|-----------------------------------------------|
|-----------------------------------------------|
|--14----12----10----12----10-9-----------------|
|-----12----12----12----12------12-<>10b--8-5-8-|
|-----------------------------------------------|
|-----------------------------------------------|


|---------------------------------|----------13------13-13b----13----|
|---------------------------------|-----/15-----13b------------------|
|---------------------------------|----------------------------------|
|--10b------12--12--10-8-10-12-8--|--L-------------------------------|
|---------------------------------|----------------------------------|
|---------------------------------|----------------------------------|


|--------------------------------------|
|--------------------------------------|
|--0-15-14-0-7-10-0-5-7-0-7-10-0-5-7-0-|
|--------------------------------------|
|--------------------------------------|
|--------------------------------------|

 
|-------------------------------------------|--------------------------------|
|---------------------------15-13---15---13-|--11----------------------------|
|--7-0-10-0-15-14-0-17-15-0-------0----0----|----------12----12-12-15-17-----|
|-------------------------------------------|----------------------------15--|
|-------------------------------------------|--------------------------------|
|-------------------------------------------|--------------------------------|


|-------13------13----10-13b--12p-10p-8-10h-12h-13-----------------------|
|--/15-----13b-----13------------------------------13p-10h-12-12h-13h-14-|
|------------------------------------------------------------------------|
|------------------------------------------------------------------------|
|------------------------------------------------------------------------|
|------------------------------------------------------------------------|


Solo (Guitar 2)
|------------------------------------|
|------------------------------------|
|------------------------------------|
|--55555500000000007777778888888888--|
|--55555500000000007777778888888888--|
|--55555500000000007777778888888888--|


|-------------------------------------|
|-------------------------------------|
|-------------------------------------|
|--5555550000000000777777888-3-3-3-3--|
|--5555550000000000777777888-3-3-3-3--|
|--5555550000000000777777888-3-3-3-3--|


|------------------------------------|
|------------------------------------|
|------------------------------------|
|--55555500000000007777778888888888--|
|--55555500000000007777778888888888--|
|--55555500000000007777778888888888--|

|----------------------------------|
|----------------------------------|
|----------------------------------|
|--111111111111111555555555555555--|
|--111111111111111555555555555555--|
|--111111111111111555555555555555--|
   ^theses are 1's




Final Chorus
|---------------------------------------|
|---------------------------------------|
|---------------------------------------|
|--0--0xx1xx1-x3-x3p0--0xx1xx1-xx5p3-0--|
|--0--0xx1xx1-x3-x3p0--0xx1xx1-xx5p3-0--|
|--0--0xx1xx1-x3-x3p0--0xx1xx1-xx5p3-0--|


|-------------------------------------|
|-------------------------------------|
|-------------------------------------|
|--0--0xx1xx1-x3-x3p0--0xx1xx1--------|
|--0--0xx1xx1-x3-x3p0--0xx1xx1--------|
|--0--0xx1xx1-x3-x3p0--0xx1xx1--0000--|
PM                              ....

|---------------------------------------|
|---------------------------------------|
|---------------------------------------|
|--0--0xx1xx1-x3-x3p0--0xx1xx1-xx5p3-0--|
|--0--0xx1xx1-x3-x3p0--0xx1xx1-xx5p3-0--|
|--0--0xx1xx1-x3-x3p0--0xx1xx1-xx5p3-0--|


|-------------------------------------|
|-------------------------------------|
|-------------------------------------|
|--0--0xx1xx1-x3-x3p0--0xx1xx1--------|
|--0--0xx1xx1-x3-x3p0--0xx1xx1--------|
|--0--0xx1xx1-x3-x3p0--0xx1xx1--0000--|
PM                              ....




Outro
|---------------------------------|
|---------------------------------|
|---------------------------------|
|--3p0-3p0-xx1p0-1p0--------------|
|--3p0-3p0-xx1p0-1p0--------------|
|--3p0-3p0-xx1p0-1p0-0-0-0-0-0-0--|


|---------------------------|
|---------------------------|
|---------------------5xx8--|
|--3p0-3p0-xx1p0-1p0xx5xx8--|
|--3p0-3p0-xx1p0-1p0xx3xx6--|
|--3p0-3p0-xx1p0-1p0xx------|


|---------------------------------|
|---------------------------------|
|---------------------------------|
|--3p0-3p0-xx1p0-1p0--------------|
|--3p0-3p0-xx1p0-1p0--------------|
|--3p0-3p0-xx1p0-1p0-0-0-0-0-0-0--|


|---------------------------|
|---------------------------|
|---------------------5xx8--|
|--3p0-3p0-xx1p0-1p0xx5xx8--|
|--3p0-3p0-xx1p0-1p0xx3xx6--|
|--3p0-3p0-xx1p0-1p0xx------|

Continue and fade out
comments
print report bad tab
11 comments total. Showing first comments.
0 reply
Subbliminal wrote on March 21 2006, 01:23 am

Looks pretty good from what I can tell just looking over it. I'll have to take out my guitar and try it when It isn't 1am heheh.
I'll come back then but it looks like a 5 star:)

0 reply
Subbliminal wrote on March 21 2006, 04:03 am

Bah, the I can't seem to get the entire song. It's hard to find, the one I got sorta randomly skips through the solo.

0 reply
Operator (CA) wrote on March 21 2006, 08:06 am

if you want it, i have msn so i can send it to you... the song is too big to send by hotmail

I want to post or [tab]
guest
You may want to rate the tab now too:
select rating
Please do not post tabs as comments. Select "correction" instead!