Oops, an error
Loading. Please wait.

Numb Tab

version 3
version 3

Whole song

381 views 1 this week
no commentswrite comment
1 2 3 4 5
accurate
x 1
add to favorites
launch autoscroll
font size
0
reset
how to read this tab
guitar tuner
Tab Pro tools
  • play this tab
  • loop segment
  • change instrument
  • show fretboard
  • metronome
Autoscroll
slow
fast
+/-
esc
set tempo
stop
Contributor
Difficulty
Tuning
intermediate
C# G# C# F# A# D#
Gtr I (Db Ab Db Gb Bb Eb) - 'Dan left'
Gtr II (Db Ab Db Gb Bb Eb) - 'Dan right'


   Intro
    Slow Rock Q=70
    D5F5      D5              F5        D5
   4/4
    Gtrs I, II
    S S S S E E +E  E E E   S S S S S S E +E  E E E  4x
||------------------------|--------------------------||
||o-----------------3-3-3-|-------------------3-3-3-o||
||------------------2-2-2-|-------------------2-2-2--||
||--0-3-3-3-3-0-(0)-0-0-0-|-0-3-3-3-3-3-0-(0)-0-0-0--||
||o-0-3-3-3-3-0-(0)-0-0-0-|-0-3-3-3-3-3-0-(0)-0-0-0-o||
||--0-3-3-3-3-0-(0)-0-0-0-|-0-3-3-3-3-3-0-(0)-0-0-0--||


   Verse
    D5F5      D5
    PM----|
    S S S S E E +H       +W           +W           +W
||---------------------|------------|------------|--------|
||o--------------------|------------|------------|--------|
||---------------------|------------|------------|--------|
||------------0-(0)----|-(0)--------|-(0)--------|-(0)----|
||o---------3-0-(0)----|-(0)--------|-(0)--------|-(0)----|
||--0-3-3-3-3-0-(0)----|-(0)--------|-(0)--------|-(0)----|


  D5F5      D5                                                AbG5F5D5
  PM----|                                                         PM|
  S S S S E E +H       +W           +W           S E. Q  Q  a S S S S
|--------------------|------------|------------|-----------------------||
|--------------------|------------|------------|-----------------------||
|--------------------|------------|------------|-----------------------||
|-----------0-(0)----|-(0)--------|-(0)--------|-0---------------------||
|---------3-0-(0)----|-(0)--------|-(0)--------|-0----------5h6p5-3-0--||
|-0-3-3-3-3-0-(0)----|-(0)--------|-(0)--------|-0----------5h6p5-3-0--||


 Pre-Chorus
  AbD5    F5    D5Ab5 G5  F5D5  AbD5    F5    D5     Ab5 G5  F5D5
      PM|                 PM|       PM|                      PM|
  E E S S E +E  E S   +S  S S   E E S S E +E  E a    +S  +S  S S
|-----------------------------|----------------------------------|
|-----------------------------|----------------------------------|
|-----------------------------|----------------------------------|
|-----------------------------|----------------------------------|
|-6-0-----3-(3)-0-------------|-6-0-----3-(3)-0------------------|
|-6-0-0-0-3-(3)-0-5b6r(5)-3-0-|-6-0-0-0-3-(3)-0-5b6==(5)r(5)-3-0-|


  AbD5    F5    D5     Ab5 G5  F5D5  AbD5    F5    D5 F5
      PM|                      PM|       PM|
  E E S S E +E  E a    +S  +S  S S   E E S S E +E  Q  E
|----------------------------------|--------------------||
|----------------------------------|--------------------||
|----------------------------------|--------------------||
|----------------------------------|--------------------||
|-6-0-----3-(3)-0------------------|-6-0-----3-(3)-0--3-||
|-6-0-0-0-3-(3)-0-5b6==(5)r(5)-3-0-|-6-0-0-0-3-(3)-0--3-||


 Chorus
  E5              Em6       E7      E5              Em6       E7
  S S S S S S S S S S S S S S S S   S S S S S S S S S S S S S S S S
|---------------------------------|---------------------------------|
|---------------------------------|---------------------------------|
|---------------------------------|---------------------------------|
|---------------------------------|---------------------------------|
|-2-2-2---x-2-2-2-3-3-3---x-5-5-5-|-2-2-2---x-2-2-2-3-3-3---x-5-5-5-|
|-2-2-2---x-2-2-2-2-2-2---x-2-2-2-|-2-2-2---x-2-2-2-2-2-2---x-2-2-2-|


  E5              Em6       E7      E5              Em6       E7
  S S S S S S S S S S S S S S S S   S S S S S S S S S S S S S S  E
|---------------------------------|-----------------------------------||
|---------------------------------|----------------------------------o||
|---------------------------------|-----------------------------------||
|---------------------------------|-----------------------------------||
|-2-2-2---x-2-2-2-3-3-3---x-5-5-5-|-2-2-2---x-2-2-2-3-3-3---x-5------o||
|-2-2-2---x-2-2-2-2-2-2---x-2-2-2-|-2-2-2---x-2-2-2-2-2-2---x-2-10\---||


   Interlude
    N.C.
    E. S S S E +E  E. E.   E. S S S E +E  E. E.
||-----------------------|-----------------------||
||o----------------------|----------------------o||
||-----------------------|-----------------------||
||-----------------------|-----------------------||
||o------0-1-0-(0)-------|------0-1-0-(0)-------o||
||--0--0-----------3--1--|-0--0-----------3--1---||


 Chorus 3
  E5              Em6       E7      E5              Em6       E7
  S S S S S S S S S S S S S S S S   S S S S S S S S S S S S S S S S
|---------------------------------|---------------------------------|
|---------------------------------|---------------------------------|
|---------------------------------|---------------------------------|
|---------------------------------|---------------------------------|
|-2-2-2---x-2-2-2-3-3-3---x-5-5-5-|-2-2-2---x-2-2-2-3-3-3---x-5-5-5-|
|-2-2-2---x-2-2-2-2-2-2---x-2-2-2-|-2-2-2---x-2-2-2-2-2-2---x-2-2-2-|


  N.C.
  E. S S S E +E  E S E.   E. S S S E +E  E S E.
|-----------------------|-----------------------||
|-----------------------|-----------------------||
|-----------------------|-----------------------||
|-----------------------|-----------------------||
|------0-1-0-(0)--------|------0-1-0-(0)--------||
|-0--0-----------3-x-1--|-0--0-----------3-x-1--||


 Bridge
  (E5)            (Em6)        (E5)            (Em6)     F5
  S S S S S S S S S S S S Q    S S S S S S S S S S S S S E.
|----------------------------|------------------------------|
|----------------------------|------------------------------|
|----------------------------|------------------------------|
|----------------------------|------------------------------|
|-2---2-----2---2-3---3------|-2---2-----2---2-3---3---x-3--|
|---2---------2-----2--------|---2---------2-----2-----x-3--|


  (E5)            (Em6)        (E5)            (Em6)     AbG5F5D5
                                                             PM|
  S S S S S S S S S S S S Q    S S S S S S S S S S S S a S S S S
|----------------------------|------------------------------------||
|----------------------------|------------------------------------||
|----------------------------|------------------------------------||
|----------------------------|------------------------------------||
|-2---2-----2---2-3---3------|-2---2-----2---2-3---3---5h6p5-3-0--||
|---2---------2-----2--------|---2---------2-----2-----5h6p5-3-0--||


   Pre-Chorus 3
    AbD5    F5    D5Ab5 G5  F5D5  AbD5    F5    D5     Ab5 G5  F5D5
        PM|                 PM|       PM|                      PM|
    E E S S E +E  E S   +S  S S   E E S S E +E  E a    +S  +S  S S
||------------------------------|----------------------------------|
||o-----------------------------|----------------------------------|
||------------------------------|----------------------------------|
||------------------------------|----------------------------------|
||o-6-0-----3-(3)-0-------------|-6-0-----3-(3)-0------------------|
||--6-0-0-0-3-(3)-0-5b6r(5)-3-0-|-6-0-0-0-3-(3)-0-5b6==(5)r(5)-3-0-|


  AbD5    F5    D5     Ab5 G5  F5D5
      PM|                      PM|
  E E S S E +E  E a    +S  +S  S S
|----------------------------------|
|----------------------------------|
|----------------------------------|
|----------------------------------|
|-6-0-----3-(3)-0------------------|
|-6-0-0-0-3-(3)-0-5b6==(5)r(5)-3-0-|


 1.
  N.C.                                      AbG5F5D5
  S   +S  S S   +S  S S   +S  S S   +S  S a S S S S
|----------------------------------------------------||
|---------------------------------------------------o||
|----------------------------------------------------||
|----------------------------------------------------||
|-----------------------------------------5h6p5-3-0-o||
|-3b5r(3)-0-3b5r(3)-0-3b5r(3)-0-3b5r(3)-0-5h6p5-3-0--||


   Out-Chorus
    2.
    N.C.
    S S S S S S S S S S S S S S S S   S S S S S S S S S S S S S S S S
||----------------------------------|-----------------------------------||
||o---------------------------------|----------------------------------o||
||----------------------------------|-----------------------------------||
||----------------------------------|-----------------------------------||
||o---------------------------------|----------------------------------o||
||--5-3-0-5-3-0-5-3-0-5-3-0-5-3-5-3-|-5-3-0-5-3-0-5-3-0-5-3-0-5-3-5-3---||


    G5F5D5G5F5D5G5F5D5G5F5D5G5F5G5F5
    PM----------------------------|
    S S S S S S S S S S S S S S S S  3x
||-----------------------------------||
||o---------------------------------o||
||-----------------------------------||
||-----------------------------------||
||o-5-3-0-5-3-0-5-3-0-5-3-0-5-3-5-3-o||
||--5-3-0-5-3-0-5-3-0-5-3-0-5-3-5-3--||


  G5F5D5G5F5D5G5F5D5G5F5D5G5F5G5F5  D5N.C.
  S S S S S S S S S S S S S S S S   E E Q  H
|---------------------------------|-------------*|
|---------------------------------|-------------*|
|---------------------------------|-------------*|
|---------------------------------|-------------*|
|-5-3-0-5-3-0-5-3-0-5-3-0-5-3-5-3-|-0-----------*|
|-5-3-0-5-3-0-5-3-0-5-3-0-5-3-5-3-|-0-----------*|




--------------------------------------------------------------------------------


Duration Legend
---------------
W - whole; H - half; Q - quarter; E - 8th; S - 16th; T - 32nd; X - 64th; a - acciaccatura
+ - note tied to previous; . - note dotted; .. - note double dotted
Uncapitalized letters represent notes that are staccato (1/2 duration)
Irregular groupings are notated above the duration line
Duration letters will always appear directly above the note/fret number it represents the
duration for.  Duration letters with no fret number below them represent rests.  Multi-
bar rests are notated in the form Wxn, where n is the number of bars to rest for.  Low
melody durations appear below the staff

Tablature Legend
----------------
 h   - hammer-on
 p   - pull-off
 b   - bend
 pb  - pre-bend
 r   - bend release (if no number after the r, then release immediately)
 /\  - slide into or out of (from/to "nowhere")
 s   - legato slide
 S   - shift slide
 - natural harmonic
[n]  - artificial harmonic
n(n) - tapped harmonic
 ~   - vibrato
 tr  - trill
 T   - tap
 TP  - trem. picking
 PM  - palm muting
\n/  - tremolo bar dip; n = amount to dip
 \n  - tremolo bar down
 n/  - tremolo bar up
/n\  - tremolo bar inverted dip
 =   - hold bend; also acts as connecting device for hammers/pulls
 <> - volume swell (louder/softer)
 x   - on rhythm slash represents muted slash
 o   - on rhythm slash represents single note slash

Misc Legend
-----------
 |  - bar
||  - double bar
||o - repeat start
o|| - repeat end
*|  - double bar (ending)
 :  - bar (freetime)
 $  - Segno
 &  - Coda
Tempo markers -  = BPM(8/16=s8/s16), where s8 = swing 8ths, s16 = swing 16ths


comments
We did not receive enough feedback on this tab! Please rate:
print report bad tab
1 2 3 4 5
I want to post or [tab]
guest
You may want to rate the tab now too:
select rating
Please do not post tabs as comments. Select "correction" instead!