Oops, an error
Loading. Please wait.

Open Your Eyes bass

version 1
version 1

Whole song

Interactive

640 views 9 this week
no commentswrite comment
1 2 3 4 5
x 3
add to favorites
×
Save as Personal and add changes to this tab that will be seen only by you. Learn more ›
×
You can save this tab as Personal to edit and correct it or add notes. All changes will be seen only by you. Learn more »
launch autoscroll
font size
0
reset
guitar tuner
backing track
0:00
0:00
edit
Autoscroll
slow
fast
+/-
esc
set tempo
stop
-------------------------------------------------------------------------------
                             Open Your Eyes - Disturbed
-------------------------------------------------------------------------------
Tabbed by: Andu Needle
E-mail: sulfur_in_my_lungs@yahoo.com

Intro:

F|----------------------------------------------------------------------|
C|----------------------------------------------------------------------|
G|-------------------------5--------8-5---------------------------------|
C|-0-0-12\-0-0--0-12~--0-6---6-00-0-----6-------------------------------|

F|----------------------------------------------------------------------|
C|----------------------------------------------------------------------|
G|-------------------------5--------------------------------------------|
C|-0-0-12\-0-0--0-12~--0-6---6-4-4-4------------------------------------|

Pre verse:

F|----------------------------------------------------------------------|
C|----------------------------------------------------------------------|
G|----------------------------------------------------------------------|
C|-00---00---00---8-----------------------------------------------------|

Verse:

You play these 2 parts for 2 times in this order!
IMO the verse is easier to play it whole on the C string. Instead of 565 you do (12)(13)(12) on the C string.
You get the idea

F|---------------------------------------------------------------------|
C|---------------------------------------------------------------------|
G|--------565---------65--8--------------------------------------------|
C|-0-0-00----0--0-0-0---00---------------------------------------------|

F|---------------------------------------------------------------------|
C|---------------------------------------------------------------------|
G|--------565---------8-8-8--------------------------------------------|
C|-0-0-00----0--8-8-8--------------------------------------------------|

Pre chorus:

F|---------------------------------------------------------------------|
C|---------------------------------------------------------------------|
G|---------------------------------------------------------------------|
C|-5-5-5-5-77777777----------------------------------------------------|

Chorus:

F|---------------------------------------------------------------------|
C|---------------------------------------------------------------------|
G|---------------------------------------------------------------------|
C|-0-0-0-8-000000--0-0-0-8-0-7-8--0-0-0-8-000000--0-0-0-8-0-7~---------|

F|---------------------------------------------------------------------|
C|---------------------------------------------------------------------|
G|---------------------------------------------------------------------|
C|-0-0-0-8-000000--0-0-0-8-0-7-8--5-5-55-5-5-8-8-88-7-7----------------|

Before Verse 2:

F|---------------------------------------------------------------------|
C|---------------------------------------------------------------------|
G|---------------------------------------------------------------------|
C|-00---00---00---5-5-5-8-8-7------------------------------------------|

Verse 2:

F|---------------------------------------------------------------------|
C|---------------------------------------------------------------------|
G|---------------------------------------------------------------------|
C|-0-0-0---0-0-0---7~--------------------------------------------------|

The rest of it is the same as the first one, so play it the same way!

Pre chorus 2 is the same as the first one!
Chorus 2 is the same as the first one but it is played twice!

For the bridge part you will play the intro 3 times in that order!

Last chorus:

F|----------------------------------------------------------------------|
C|----------------------------------------------------------------------|
G|----------------------------------------------------------------------|
C|-0-0-0-8-000000--0-0-0-8-0-7-8--5-5-55-5-5-8-8-88-7-7-----------------|

The rest of the chorus is as the other 2, played once in that order!

Outro:

F|----------------------------------------------------------------------|
C|----------------------------------------------------------------------|
G|----------------------------------------------------------------------|
C|-00---00---00---5-5-5-8-8-7-------------------------------------------|

F|----------------------------------------------------------------------|
C|----------------------------------------------------------------------|
G|----------------------------------------------------------------------|
C|-00000000(x6)--5-5-5-8-8-7--------------------------------------------|

            
            
Suggest correction
Creating personal tab
Creating personal tab
You can edit any tab online and save it as your Personal.

You can edit, replace or remove any tab part or add personal notes – all changes will be seen only by you.

Personal tabs can be accessed anytime from any device, even offline.
Learn more »
Give kudos to tab author, rate the tab!
1 2 3 4 5
comments
print report bad tab
guest
You may want to rate the tab now too:
select rating
Wanna post a correction for this tab? Suggest correction