Oops, an error
Loading. Please wait.

Overburdened Bass Tab

version 2
version 2

Whole song

Interactive

3,134 views 1 this week
no commentswrite comment
1 2 3 4 5
please rate
add to favorites
launch autoscroll
font size
0
reset
guitar tuner
Autoscroll
slow
fast
+/-
esc
set tempo
stop
Help us to improve Ultimate-Guitar.com Take our survey!
×
Author
Tuning
C G C F A D
Disturbed-Overburdened-Ten Thousand Fists-Bass Tab


~I believe the entire song is played with a pick.  Place your middle finger over the 
fret on the A and D strings
and your index on 19 on G.
To play on the 22nd and 21st frets, use your pinky and ring finger, respectively. Let 
the notes ring slightly. Kick ass song!

Intro

3X
C|--20~---20~-----20--------20~-----20~---------|---12-12-----12-12----12--15-------15-------15/-|
G|-----20~-----20--------------20~-----20~------|-----------------------------13-13----13-13-----|
C|----------------------------------------------|------------------------------------------------|

F|-19~----------------19--22~-----21~--------19-\---14~~| 1X
C|----20~---20~-----20--------20~-----20~-----------12~~|
G|-------20~-----20--------------20~-----20~--------12~~|
C|------------------------------------------------------|

                Verse
F|--------------|----------------------------------|-----------------------------------|
C|------REST----|----19~---15-----17----17--20--19-|----19~---15-----17----15--14--14--|
G|--------------|----------------------------------|-----------------------------------|
C|--------------|-0~-----0-----0------0---0---0----|-0~-----0-----0------0---0---0-----|

|------------------------------------|-----------------------------------------| 3X
|------19~---15-----17----17--20--19-|---14-----14-----14--14-----14----12-14--|
|------------------------------------|-----------------------------------------|
|-0-0~-----0-----0------0---0---0----|-0~---0-0----0-0---0----0-0----0-0-------|
Suggest correction
Give kudos to tab author, rate the tab!
1 2 3 4 5
comments
print report bad tab
guest
You may want to rate the tab now too:
select rating
Wanna post a correction for this tab? Suggest correction